  0
SECTION
  2
HEADER
  9
$ACADVER
  1
AC1018
  9
$ACADMAINTVER
 70
     0
  9
$DWGCODEPAGE
  3
ANSI_1252
  9
$INSBASE
 10
0.0
 20
0.0
 30
0.0
  9
$EXTMIN
 10
-41.97661199999999
 20
-45.65074886261129
 30
0.0
  9
$EXTMAX
 10
72.96436200000004
 20
34.7963859999999
 30
0.0
  9
$LIMMIN
 10
0.0
 20
0.0
  9
$LIMMAX
 10
12.0
 20
9.0
  9
$ORTHOMODE
 70
     0
  9
$REGENMODE
 70
     1
  9
$FILLMODE
 70
     1
  9
$QTEXTMODE
 70
     0
  9
$MIRRTEXT
 70
     1
  9
$LTSCALE
 40
1.0
  9
$ATTMODE
 70
     1
  9
$TEXTSIZE
 40
0.2
  9
$TRACEWID
 40
0.05
  9
$TEXTSTYLE
  7
Standard
  9
$CLAYER
  8
0
  9
$CELTYPE
  6
ByLayer
  9
$CECOLOR
 62
   256
  9
$CELTSCALE
 40
1.0
  9
$DISPSILH
 70
     0
  9
$DIMSCALE
 40
1.0
  9
$DIMASZ
 40
0.18
  9
$DIMEXO
 40
0.0625
  9
$DIMDLI
 40
0.38
  9
$DIMRND
 40
0.0
  9
$DIMDLE
 40
0.0
  9
$DIMEXE
 40
0.18
  9
$DIMTP
 40
0.0
  9
$DIMTM
 40
0.0
  9
$DIMTXT
 40
0.18
  9
$DIMCEN
 40
0.09
  9
$DIMTSZ
 40
0.0
  9
$DIMTOL
 70
     0
  9
$DIMLIM
 70
     0
  9
$DIMTIH
 70
     1
  9
$DIMTOH
 70
     1
  9
$DIMSE1
 70
     0
  9
$DIMSE2
 70
     0
  9
$DIMTAD
 70
     0
  9
$DIMZIN
 70
     0
  9
$DIMBLK
  1

  9
$DIMASO
 70
     1
  9
$DIMSHO
 70
     1
  9
$DIMPOST
  1

  9
$DIMAPOST
  1

  9
$DIMALT
 70
     0
  9
$DIMALTD
 70
     2
  9
$DIMALTF
 40
25.4
  9
$DIMLFAC
 40
1.0
  9
$DIMTOFL
 70
     0
  9
$DIMTVP
 40
0.0
  9
$DIMTIX
 70
     0
  9
$DIMSOXD
 70
     0
  9
$DIMSAH
 70
     0
  9
$DIMBLK1
  1

  9
$DIMBLK2
  1

  9
$DIMSTYLE
  2
Standard
  9
$DIMCLRD
 70
     0
  9
$DIMCLRE
 70
     0
  9
$DIMCLRT
 70
     0
  9
$DIMTFAC
 40
1.0
  9
$DIMGAP
 40
0.09
  9
$DIMJUST
 70
     0
  9
$DIMSD1
 70
     0
  9
$DIMSD2
 70
     0
  9
$DIMTOLJ
 70
     1
  9
$DIMTZIN
 70
     0
  9
$DIMALTZ
 70
     0
  9
$DIMALTTZ
 70
     0
  9
$DIMUPT
 70
     0
  9
$DIMDEC
 70
     4
  9
$DIMTDEC
 70
     4
  9
$DIMALTU
 70
     2
  9
$DIMALTTD
 70
     2
  9
$DIMTXSTY
  7
Standard
  9
$DIMAUNIT
 70
     0
  9
$DIMADEC
 70
     0
  9
$DIMALTRND
 40
0.0
  9
$DIMAZIN
 70
     0
  9
$DIMDSEP
 70
    46
  9
$DIMATFIT
 70
     3
  9
$DIMFRAC
 70
     0
  9
$DIMLDRBLK
  1

  9
$DIMLUNIT
 70
     2
  9
$DIMLWD
 70
    -2
  9
$DIMLWE
 70
    -2
  9
$DIMTMOVE
 70
     0
  9
$LUNITS
 70
     2
  9
$LUPREC
 70
     4
  9
$SKETCHINC
 40
0.1
  9
$FILLETRAD
 40
0.5
  9
$AUNITS
 70
     0
  9
$AUPREC
 70
     0
  9
$MENU
  1
.
  9
$ELEVATION
 40
0.0
  9
$PELEVATION
 40
0.0
  9
$THICKNESS
 40
0.0
  9
$LIMCHECK
 70
     0
  9
$CHAMFERA
 40
0.5
  9
$CHAMFERB
 40
0.5
  9
$CHAMFERC
 40
1.0
  9
$CHAMFERD
 40
0.0
  9
$SKPOLY
 70
     0
  9
$TDCREATE
 40
2454483.372579757
  9
$TDUCREATE
 40
2454483.33091309
  9
$TDUPDATE
 40
2454483.372579768
  9
$TDUUPDATE
 40
2454483.330913102
  9
$TDINDWG
 40
0.0000000116
  9
$TDUSRTIMER
 40
0.0000000116
  9
$USRTIMER
 70
     1
  9
$ANGBASE
 50
0.0
  9
$ANGDIR
 70
     0
  9
$PDMODE
 70
     0
  9
$PDSIZE
 40
0.0
  9
$PLINEWID
 40
0.0
  9
$SPLFRAME
 70
     0
  9
$SPLINETYPE
 70
     6
  9
$SPLINESEGS
 70
     8
  9
$HANDSEED
  5
145
  9
$SURFTAB1
 70
     6
  9
$SURFTAB2
 70
     6
  9
$SURFTYPE
 70
     6
  9
$SURFU
 70
     6
  9
$SURFV
 70
     6
  9
$UCSBASE
  2

  9
$UCSNAME
  2

  9
$UCSORG
 10
0.0
 20
0.0
 30
0.0
  9
$UCSXDIR
 10
1.0
 20
0.0
 30
0.0
  9
$UCSYDIR
 10
0.0
 20
1.0
 30
0.0
  9
$UCSORTHOREF
  2

  9
$UCSORTHOVIEW
 70
     0
  9
$UCSORGTOP
 10
0.0
 20
0.0
 30
0.0
  9
$UCSORGBOTTOM
 10
0.0
 20
0.0
 30
0.0
  9
$UCSORGLEFT
 10
0.0
 20
0.0
 30
0.0
  9
$UCSORGRIGHT
 10
0.0
 20
0.0
 30
0.0
  9
$UCSORGFRONT
 10
0.0
 20
0.0
 30
0.0
  9
$UCSORGBACK
 10
0.0
 20
0.0
 30
0.0
  9
$PUCSBASE
  2

  9
$PUCSNAME
  2

  9
$PUCSORG
 10
0.0
 20
0.0
 30
0.0
  9
$PUCSXDIR
 10
1.0
 20
0.0
 30
0.0
  9
$PUCSYDIR
 10
0.0
 20
1.0
 30
0.0
  9
$PUCSORTHOREF
  2

  9
$PUCSORTHOVIEW
 70
     0
  9
$PUCSORGTOP
 10
0.0
 20
0.0
 30
0.0
  9
$PUCSORGBOTTOM
 10
0.0
 20
0.0
 30
0.0
  9
$PUCSORGLEFT
 10
0.0
 20
0.0
 30
0.0
  9
$PUCSORGRIGHT
 10
0.0
 20
0.0
 30
0.0
  9
$PUCSORGFRONT
 10
0.0
 20
0.0
 30
0.0
  9
$PUCSORGBACK
 10
0.0
 20
0.0
 30
0.0
  9
$USERI1
 70
     0
  9
$USERI2
 70
     0
  9
$USERI3
 70
     0
  9
$USERI4
 70
     0
  9
$USERI5
 70
     0
  9
$USERR1
 40
14.5
  9
$USERR2
 40
0.0
  9
$USERR3
 40
0.0
  9
$USERR4
 40
0.0
  9
$USERR5
 40
0.0
  9
$WORLDVIEW
 70
     1
  9
$SHADEDGE
 70
     3
  9
$SHADEDIF
 70
    70
  9
$TILEMODE
 70
     1
  9
$MAXACTVP
 70
    64
  9
$PINSBASE
 10
0.0
 20
0.0
 30
0.0
  9
$PLIMCHECK
 70
     0
  9
$PEXTMIN
 10
1.00000000000000E+20
 20
1.00000000000000E+20
 30
1.00000000000000E+20
  9
$PEXTMAX
 10
-1.00000000000000E+20
 20
-1.00000000000000E+20
 30
-1.00000000000000E+20
  9
$PLIMMIN
 10
0.0
 20
0.0
  9
$PLIMMAX
 10
12.0
 20
9.0
  9
$UNITMODE
 70
     0
  9
$VISRETAIN
 70
     1
  9
$PLINEGEN
 70
     0
  9
$PSLTSCALE
 70
     1
  9
$TREEDEPTH
 70
  3020
  9
$CMLSTYLE
  2
Standard
  9
$CMLJUST
 70
     0
  9
$CMLSCALE
 40
1.0
  9
$PROXYGRAPHICS
 70
     1
  9
$MEASUREMENT
 70
     1
  9
$CELWEIGHT
370
    -1
  9
$ENDCAPS
280
     0
  9
$JOINSTYLE
280
     0
  9
$LWDISPLAY
290
     0
  9
$INSUNITS
 70
     1
  9
$HYPERLINKBASE
  1

  9
$STYLESHEET
  1

  9
$XEDIT
290
     1
  9
$CEPSNTYPE
380
     0
  9
$PSTYLEMODE
290
     1
  9
$FINGERPRINTGUID
  2
{FA20841D-03F0-491D-B9A7-E4CF07973E3D}
  9
$VERSIONGUID
  2
{FAEB1C32-E019-11D5-929B-00C0DF256EC4}
  9
$EXTNAMES
290
     1
  9
$PSVPSCALE
 40
0.0
  9
$OLESTARTUP
290
     0
  9
$SORTENTS
280
   127
  9
$INDEXCTL
280
     0
  9
$HIDETEXT
280
     1
  9
$XCLIPFRAME
290
     0
  9
$HALOGAP
280
     0
  9
$OBSCOLOR
 70
   257
  9
$OBSLTYPE
280
     0
  9
$INTERSECTIONDISPLAY
280
     0
  9
$INTERSECTIONCOLOR
 70
   257
  9
$DIMASSOC
280
     2
  9
$PROJECTNAME
  1

  0
ENDSEC
  0
SECTION
  2
CLASSES
  0
CLASS
  1
ACDBDICTIONARYWDFLT
  2
AcDbDictionaryWithDefault
  3
ObjectDBX Classes
 90
        0
 91
        3
280
     0
281
     0
  0
CLASS
  1

  2
exOdDbCircle
  3

 90
        0
 91
        3
280
     0
281
     1
  0
ENDSEC
  0
SECTION
  2
TABLES
  0
TABLE
  2
VPORT
  5
8
330
0
100
AcDbSymbolTable
 70
     1
  0
VPORT
  5
29
330
8
100
AcDbSymbolTableRecord
100
AcDbViewportTableRecord
  2
*Active
 70
     0
 10
0.0
 20
0.0
 11
1.0
 21
1.0
 12
15.49387500000002
 22
-5.42718143130569
 13
0.0
 23
0.0
 14
0.5
 24
0.5
 15
0.5
 25
0.5
 16
0.0
 26
0.0
 36
1.0
 17
0.0
 27
0.0
 37
0.0
 40
88.49184834887232
 41
1.60267857142857
 42
50.0
 43
0.0
 44
0.0
 50
0.0
 51
0.0
 71
     0
 72
   100
 73
     1
 74
     3
 75
     0
 76
     0
 77
     0
 78
     0
281
     0
 65
     1
110
0.0
120
0.0
130
0.0
111
1.0
121
0.0
131
0.0
112
0.0
122
1.0
132
0.0
 79
     0
146
0.0
  0
ENDTAB
  0
TABLE
  2
LTYPE
  5
5
330
0
100
AcDbSymbolTable
 70
     8
  0
LTYPE
  5
14
330
5
100
AcDbSymbolTableRecord
100
AcDbLinetypeTableRecord
  2
ByBlock
 70
     0
  3

 72
    65
 73
     0
 40
0.0
  0
LTYPE
  5
15
330
5
100
AcDbSymbolTableRecord
100
AcDbLinetypeTableRecord
  2
ByLayer
 70
     0
  3

 72
    65
 73
     0
 40
0.0
  0
LTYPE
  5
16
330
5
100
AcDbSymbolTableRecord
100
AcDbLinetypeTableRecord
  2
Continuous
 70
     0
  3
Solid line
 72
    65
 73
     0
 40
0.0
  0
LTYPE
  5
2A
330
5
100
AcDbSymbolTableRecord
100
AcDbLinetypeTableRecord
  2
DASHED
 70
     0
  3
Dashed
 72
    65
 73
     2
 40
15.0
 49
7.0
 74
     0
 49
-8.0
 74
     0
  0
LTYPE
  5
2B
330
5
100
AcDbSymbolTableRecord
100
AcDbLinetypeTableRecord
  2
DOTTED
 70
     0
  3
Dotted
 72
    65
 73
     2
 40
1.0
 49
0.0
 74
     0
 49
-1.0
 74
     0
  0
LTYPE
  5
2C
330
5
100
AcDbSymbolTableRecord
100
AcDbLinetypeTableRecord
  2
DOT_CENTER
 70
     0
  3
Dot_Center
 72
    65
 73
     4
 40
14.0
 49
12.0
 74
     0
 49
-1.0
 74
     0
 49
0.0
 74
     0
 49
-1.0
 74
     0
  0
LTYPE
  5
2D
330
5
100
AcDbSymbolTableRecord
100
AcDbLinetypeTableRecord
  2
LONG_DASHED
 70
     0
  3
Long_Dashed
 72
    65
 73
     2
 40
15.0
 49
10.0
 74
     0
 49
-5.0
 74
     0
  0
LTYPE
  5
2E
330
5
100
AcDbSymbolTableRecord
100
AcDbLinetypeTableRecord
  2
DASH_CENTER
 70
     0
  3
Dash_Center
 72
    65
 73
     4
 40
14.0
 49
11.0
 74
     0
 49
-1.0
 74
     0
 49
1.0
 74
     0
 49
-1.0
 74
     0
  0
LTYPE
  5
2F
330
5
100
AcDbSymbolTableRecord
100
AcDbLinetypeTableRecord
  2
PHANTOM
 70
     0
  3
Phantom
 72
    65
 73
     6
 40
13.0
 49
10.0
 74
     0
 49
-1.0
 74
     0
 49
0.0
 74
     0
 49
-1.0
 74
     0
 49
0.0
 74
     0
 49
-1.0
 74
     0
  0
LTYPE
  5
30
330
5
100
AcDbSymbolTableRecord
100
AcDbLinetypeTableRecord
  2
CENTER_DASH_DASH
 70
     0
  3
Center_Dash_Dash
 72
    65
 73
     6
 40
14.0
 49
9.0
 74
     0
 49
-1.0
 74
     0
 49
1.0
 74
     0
 49
-1.0
 74
     0
 49
1.0
 74
     0
 49
-1.0
 74
     0
  0
ENDTAB
  0
TABLE
  2
LAYER
  5
2
330
0
100
AcDbSymbolTable
 70
     3
  0
LAYER
  5
10
330
2
100
AcDbSymbolTableRecord
100
AcDbLayerTableRecord
  2
0
 70
     0
 62
     7
  6
Continuous
370
    -3
390
F
  0
LAYER
  5
31
330
2
100
AcDbSymbolTableRecord
100
AcDbLayerTableRecord
  2
1
 70
     0
 62
     7
  6
Continuous
370
    -3
390
F
  0
LAYER
  5
32
330
2
100
AcDbSymbolTableRecord
100
AcDbLayerTableRecord
  2
MO_
 70
     0
 62
     7
  6
Continuous
370
    -3
390
F
  0
ENDTAB
  0
TABLE
  2
STYLE
  5
3
330
0
100
AcDbSymbolTable
 70
     1
  0
STYLE
  5
11
330
3
100
AcDbSymbolTableRecord
100
AcDbTextStyleTableRecord
  2
Standard
 70
     0
 40
0.0
 41
1.0
 50
0.0
 71
     0
 42
0.2
  3
txt
  4

  0
ENDTAB
  0
TABLE
  2
VIEW
  5
6
330
0
100
AcDbSymbolTable
 70
     0
  0
ENDTAB
  0
TABLE
  2
UCS
  5
7
330
0
100
AcDbSymbolTable
 70
     0
  0
ENDTAB
  0
TABLE
  2
APPID
  5
9
330
0
100
AcDbSymbolTable
 70
     1
  0
APPID
  5
12
330
9
100
AcDbSymbolTableRecord
100
AcDbRegAppTableRecord
  2
ACAD
 70
     0
  0
ENDTAB
  0
TABLE
  2
DIMSTYLE
  5
A
330
0
100
AcDbSymbolTable
 70
     1
100
AcDbDimStyleTable
  0
DIMSTYLE
105
27
330
A
100
AcDbSymbolTableRecord
100
AcDbDimStyleTableRecord
  2
Standard
 70
     0
340
11
  0
ENDTAB
  0
TABLE
  2
BLOCK_RECORD
  5
1
330
0
100
AcDbSymbolTable
 70
     1
  0
BLOCK_RECORD
  5
1F
330
1
100
AcDbSymbolTableRecord
100
AcDbBlockTableRecord
  2
*Model_Space
340
22
  0
BLOCK_RECORD
  5
1B
330
1
100
AcDbSymbolTableRecord
100
AcDbBlockTableRecord
  2
*Paper_Space
340
1E
  0
BLOCK_RECORD
  5
23
330
1
100
AcDbSymbolTableRecord
100
AcDbBlockTableRecord
  2
*Paper_Space0
340
26
  0
ENDTAB
  0
ENDSEC
  0
SECTION
  2
BLOCKS
  0
BLOCK
  5
20
330
1F
100
AcDbEntity
  8
0
100
AcDbBlockBegin
  2
*Model_Space
 70
     0
 71
     0
 10
0.0
 20
0.0
 30
0.0
  3
*Model_Space
  1

  0
ENDBLK
  5
21
330
1F
100
AcDbEntity
  8
0
100
AcDbBlockEnd
  0
BLOCK
  5
1C
330
1B
100
AcDbEntity
 67
     1
  8
0
100
AcDbBlockBegin
  2
*Paper_Space
 70
     0
 71
     0
 10
0.0
 20
0.0
 30
0.0
  3
*Paper_Space
  1

  0
ENDBLK
  5
1D
330
1B
100
AcDbEntity
 67
     1
  8
0
100
AcDbBlockEnd
  0
BLOCK
  5
24
330
23
100
AcDbEntity
  8
0
100
AcDbBlockBegin
  2
*Paper_Space0
 70
     0
 71
     0
 10
0.0
 20
0.0
 30
0.0
  3
*Paper_Space0
  1

  0
ENDBLK
  5
25
330
23
100
AcDbEntity
  8
0
100
AcDbBlockEnd
  0
ENDSEC
  0
SECTION
  2
ENTITIES
  0
LINE
  5
33
102
{ACAD_REACTORS
330
143
330
143
102
}
330
1F
100
AcDbEntity
  8
1
  6
Continuous
 62
     7
100
AcDbLine
 10
29.93116500000005
 20
-19.50730987887758
 30
0.0
 11
29.93116500000005
 21
12.20333712107287
 31
0.0
  0
LINE
  5
34
102
{ACAD_REACTORS
330
143
330
143
102
}
330
1F
100
AcDbEntity
  8
1
  6
Continuous
 62
     7
100
AcDbLine
 10
43.34641000000003
 20
-21.50730987887758
 30
0.0
 11
31.93116500000005
 21
-21.50730987887758
 31
0.0
  0
LINE
  5
35
102
{ACAD_REACTORS
330
143
330
143
102
}
330
1F
100
AcDbEntity
  8
1
  6
Continuous
 62
     7
100
AcDbLine
 10
45.34641000000003
 20
12.20333712107287
 30
0.0
 11
45.34641000000003
 21
-19.50730987887758
 31
0.0
  0
LINE
  5
36
102
{ACAD_REACTORS
330
143
330
143
102
}
330
1F
100
AcDbEntity
  8
1
  6
Continuous
 62
     7
100
AcDbLine
 10
31.93116500000005
 20
14.20333712107287
 30
0.0
 11
43.34641000000003
 21
14.20333712107287
 31
0.0
  0
LINE
  5
37
102
{ACAD_REACTORS
330
143
330
143
102
}
330
1F
100
AcDbEntity
  8
1
  6
Continuous
 62
     7
100
AcDbLine
 10
31.43116500000004
 20
12.20333712105613
 30
0.0
 11
31.43116500000005
 21
-19.50730987887758
 31
0.0
  0
LINE
  5
38
102
{ACAD_REACTORS
330
143
330
143
102
}
330
1F
100
AcDbEntity
  8
1
  6
Continuous
 62
     7
100
AcDbLine
 10
43.34641000000003
 20
12.70333712105614
 30
0.0
 11
31.93116500000004
 21
12.70333712105613
 31
0.0
  0
LINE
  5
39
102
{ACAD_REACTORS
330
143
330
143
102
}
330
1F
100
AcDbEntity
  8
1
  6
Continuous
 62
     7
100
AcDbLine
 10
43.84641000000003
 20
-19.50730987887758
 30
0.0
 11
43.84641000000003
 21
12.20333712105614
 31
0.0
  0
LINE
  5
3A
102
{ACAD_REACTORS
330
143
330
143
102
}
330
1F
100
AcDbEntity
  8
1
  6
Continuous
 62
     7
100
AcDbLine
 10
31.93116500000005
 20
-20.00730987887758
 30
0.0
 11
43.34641000000003
 21
-20.00730987887758
 31
0.0
  0
LINE
  5
3B
102
{ACAD_REACTORS
330
144
330
144
102
}
330
1F
100
AcDbEntity
  8
1
  6
Continuous
 62
     7
100
AcDbLine
 10
-30.65243900000002
 20
18.82466100000002
 30
0.0
 11
-30.65243900000002
 21
-7.85728499999999
 31
0.0
  0
LINE
  5
3C
102
{ACAD_REACTORS
330
144
330
144
102
}
330
1F
100
AcDbEntity
  8
1
  6
Continuous
 62
     7
100
AcDbLine
 10
-10.35690600000001
 20
20.82466100000002
 30
0.0
 11
-28.65243900000002
 21
20.82466100000002
 31
0.0
  0
LINE
  5
3D
102
{ACAD_REACTORS
330
144
330
144
102
}
330
1F
100
AcDbEntity
  8
1
  6
Continuous
 62
     7
100
AcDbLine
 10
-8.35690600000001
 20
-7.85728499999999
 30
0.0
 11
-8.35690600000001
 21
18.82466100000002
 31
0.0
  0
LINE
  5
3E
102
{ACAD_REACTORS
330
144
330
144
102
}
330
1F
100
AcDbEntity
  8
1
  6
Continuous
 62
     7
100
AcDbLine
 10
-28.65243900000002
 20
-9.85728499999999
 30
0.0
 11
-10.35690600000001
 21
-9.85728499999999
 31
0.0
  0
LINE
  5
3F
102
{ACAD_REACTORS
330
144
330
144
102
}
330
1F
100
AcDbEntity
  8
1
  6
Continuous
 62
     7
100
AcDbLine
 10
-29.15243900000002
 20
18.82466100000002
 30
0.0
 11
-29.15243900000002
 21
-7.85728499999999
 31
0.0
  0
LINE
  5
40
102
{ACAD_REACTORS
330
144
330
144
102
}
330
1F
100
AcDbEntity
  8
1
  6
Continuous
 62
     7
100
AcDbLine
 10
-10.35690600000001
 20
19.32466100000002
 30
0.0
 11
-28.65243900000002
 21
19.32466100000002
 31
0.0
  0
LINE
  5
41
102
{ACAD_REACTORS
330
144
330
144
102
}
330
1F
100
AcDbEntity
  8
1
  6
Continuous
 62
     7
100
AcDbLine
 10
-9.85690600000001
 20
-7.85728499999999
 30
0.0
 11
-9.85690600000001
 21
18.82466100000002
 31
0.0
  0
LINE
  5
42
102
{ACAD_REACTORS
330
144
330
144
102
}
330
1F
100
AcDbEntity
  8
1
  6
Continuous
 62
     7
100
AcDbLine
 10
-28.65243900000002
 20
-8.35728499999999
 30
0.0
 11
-10.35690600000001
 21
-8.35728499999999
 31
0.0
  0
LINE
  5
43
330
1F
100
AcDbEntity
  8
0
  6
Continuous
 62
     7
100
AcDbLine
 10
-4.99999999999997
 20
-20.50360899999998
 30
0.0
 11
-2.02809099999999
 21
-20.50360899999998
 31
0.0
  0
LINE
  5
44
330
1F
100
AcDbEntity
  8
0
  6
Continuous
 62
     7
100
AcDbLine
 10
-2.03346099999999
 20
-19.46343399999998
 30
0.0
 11
-2.03346099999999
 21
-20.50360899999998
 31
0.0
  0
LINE
  5
45
330
1F
100
AcDbEntity
  8
0
  6
Continuous
 62
     7
100
AcDbLine
 10
-2.033458
 20
-5.88124099999999
 30
0.0
 11
-0.00000400000002
 21
-5.48989899999998
 31
0.0
  0
LINE
  5
46
330
1F
100
AcDbEntity
  8
0
  6
Continuous
 62
     7
100
AcDbLine
 10
-13.922596
 20
21.496353
 30
0.0
 11
-8.19998070649004
 21
21.49638299998151
 31
0.0
  0
LINE
  5
47
330
1F
100
AcDbEntity
  8
0
  6
Continuous
 62
     7
100
AcDbLine
 10
-23.937931
 20
21.496353
 30
0.0
 11
-15.103611
 21
21.49636800000002
 31
0.0
  0
LINE
  5
48
330
1F
100
AcDbEntity
  8
0
  6
Continuous
 62
     7
100
AcDbLine
 10
-23.948017
 20
-10.50361700000008
 30
0.0
 11
-15.15826799999999
 21
-10.50361700000008
 31
0.0
  0
LINE
  5
49
330
1F
100
AcDbEntity
  8
0
  6
Continuous
 62
     7
100
AcDbLine
 10
-13.86522199999999
 20
-10.50363199999998
 30
0.0
 11
-8.19998084611638
 21
-10.5036169999828
 31
0.0
  0
LINE
  5
4A
330
1F
100
AcDbEntity
  8
0
  6
Continuous
 62
     7
100
AcDbLine
 10
-14.501148
 20
-9.84652799999998
 30
0.0
 11
-13.86522199999999
 21
-10.50363199999998
 31
0.0
  0
LINE
  5
4B
330
1F
100
AcDbEntity
  8
0
  6
Continuous
 62
     7
100
AcDbLine
 10
-14.501148
 20
-9.84652799999998
 30
0.0
 11
-15.15826799999999
 21
-10.50361700000008
 31
0.0
  0
LINE
  5
4C
330
1F
100
AcDbEntity
  8
0
  6
Continuous
 62
     7
100
AcDbLine
 10
-24.58029499999998
 20
-9.85728499999999
 30
0.0
 11
-23.948017
 21
-10.50361700000008
 31
0.0
  0
LINE
  5
4D
330
1F
100
AcDbEntity
  8
0
  6
Continuous
 62
     7
100
AcDbLine
 10
-24.58029499999998
 20
-9.85728499999999
 30
0.0
 11
-25.21257400000002
 21
-10.50363199999998
 31
0.0
  0
LINE
  5
4E
330
1F
100
AcDbEntity
  8
0
  6
Continuous
 62
     7
100
AcDbLine
 10
-14.51309499999999
 20
20.81858799999992
 30
0.0
 11
-13.922596
 21
21.496353
 31
0.0
  0
LINE
  5
4F
330
1F
100
AcDbEntity
  8
0
  6
Continuous
 62
     7
100
AcDbLine
 10
-14.51309499999999
 20
20.81858799999992
 30
0.0
 11
-15.103611
 21
21.49636800000002
 31
0.0
  0
LINE
  5
50
330
1F
100
AcDbEntity
  8
0
  6
Continuous
 62
     7
100
AcDbLine
 10
-24.49766899999998
 20
20.82466100000002
 30
0.0
 11
-23.937931
 21
21.496353
 31
0.0
  0
LINE
  5
51
330
1F
100
AcDbEntity
  8
0
  6
Continuous
 62
     7
100
AcDbLine
 10
-24.49766899999998
 20
20.82466100000002
 30
0.0
 11
-25.05742199999997
 21
21.49638299999992
 31
0.0
  0
LINE
  5
52
330
1F
100
AcDbEntity
  8
0
  6
Continuous
 62
     7
100
AcDbLine
 10
-41.930072
 20
32.07188400000001
 30
0.0
 11
-41.93008800000001
 21
34.7963859999999
 31
0.0
  0
LINE
  5
53
330
1F
100
AcDbEntity
  8
0
  6
Continuous
 62
     7
100
AcDbLine
 10
-7.699985
 20
-4.20742799999999
 30
0.0
 11
-7.69998500000005
 21
-10.00361723561949
 31
0.0
  0
LINE
  5
54
330
1F
100
AcDbEntity
  8
0
  6
Continuous
 62
     7
100
AcDbLine
 10
-7.699985
 20
13.75782700000002
 30
0.0
 11
-7.69997000000001
 21
-2.9592440000001
 31
0.0
  0
LINE
  5
55
330
1F
100
AcDbEntity
  8
0
  6
Continuous
 62
     7
100
AcDbLine
 10
-31.29999099999998
 20
13.76773
 30
0.0
 11
-31.29999099999998
 21
-2.99104399999999
 31
0.0
  0
LINE
  5
56
330
1F
100
AcDbEntity
  8
0
  6
Continuous
 62
     7
100
AcDbLine
 10
-31.29997600000002
 20
-4.199997
 30
0.0
 11
-31.29999099999998
 21
-10.00361700000008
 31
0.0
  0
LINE
  5
57
330
1F
100
AcDbEntity
  8
0
  6
Continuous
 62
     7
100
AcDbLine
 10
-30.64808999999997
 20
-3.59552000000008
 30
0.0
 11
-31.29999099999998
 21
-2.99104399999999
 31
0.0
  0
LINE
  5
58
330
1F
100
AcDbEntity
  8
0
  6
Continuous
 62
     7
100
AcDbLine
 10
-30.64808999999997
 20
-3.59552000000008
 30
0.0
 11
-31.29997600000002
 21
-4.199997
 31
0.0
  0
LINE
  5
59
330
1F
100
AcDbEntity
  8
0
  6
Continuous
 62
     7
100
AcDbLine
 10
-30.65243900000002
 20
14.39535500000002
 30
0.0
 11
-31.29999099999998
 21
13.76773
 31
0.0
  0
LINE
  5
5A
330
1F
100
AcDbEntity
  8
0
  6
Continuous
 62
     7
100
AcDbLine
 10
-30.65243900000002
 20
14.39535500000002
 30
0.0
 11
-31.29997600000002
 21
14.99973999999992
 31
0.0
  0
LINE
  5
5B
330
1F
100
AcDbEntity
  8
0
  6
Continuous
 62
     7
100
AcDbLine
 10
-8.35690600000001
 20
-3.58332899999999
 30
0.0
 11
-7.699985
 21
-4.20742799999999
 31
0.0
  0
LINE
  5
5C
330
1F
100
AcDbEntity
  8
0
  6
Continuous
 62
     7
100
AcDbLine
 10
-8.35690600000001
 20
-3.58332899999999
 30
0.0
 11
-7.69997000000001
 21
-2.9592440000001
 31
0.0
  0
LINE
  5
5D
330
1F
100
AcDbEntity
  8
0
  6
Continuous
 62
     7
100
AcDbLine
 10
-8.350009
 20
14.35585
 30
0.0
 11
-7.699985
 21
14.95387199999991
 31
0.0
  0
LINE
  5
5E
330
1F
100
AcDbEntity
  8
0
  6
Continuous
 62
     7
100
AcDbLine
 10
-8.350009
 20
14.35585
 30
0.0
 11
-7.699985
 21
13.75782700000002
 31
0.0
  0
LINE
  5
5F
330
1F
100
AcDbEntity
  8
0
  6
Continuous
 62
     7
100
AcDbLine
 10
-5.699997
 20
31.5963889999999
 30
0.0
 11
-5.699997
 21
23.87809700000003
 31
0.0
  0
LINE
  5
60
330
1F
100
AcDbEntity
  8
0
  6
Continuous
 62
     7
100
AcDbLine
 10
10.636381
 20
23.77948000000001
 30
0.0
 11
11.266862
 21
26.91387900000001
 31
0.0
  0
LINE
  5
61
330
1F
100
AcDbEntity
  8
0
  6
Continuous
 62
     7
100
AcDbLine
 10
-5.199997
 20
23.37809700000003
 30
0.0
 11
10.14621415388362
 21
23.37809700001722
 31
0.0
  0
LINE
  5
62
330
1F
100
AcDbEntity
  8
0
  6
Continuous
 62
     7
100
AcDbLine
 10
12.237491
 20
21.79637100000002
 30
0.0
 11
12.86457999999999
 21
24.913894
 31
0.0
  0
LINE
  5
63
330
1F
100
AcDbEntity
  8
0
  6
Continuous
 62
     7
100
AcDbLine
 10
14.51472815388362
 20
27.31530700001721
 30
0.0
 11
11.75706829350994
 21
27.31530699998152
 31
0.0
  0
LINE
  5
64
330
1F
100
AcDbEntity
  8
0
  6
Continuous
 62
     7
100
AcDbLine
 10
15.00730200000001
 20
27.90121399999993
 30
0.0
 11
14.34781000000001
 21
31.68229600000001
 31
0.0
  0
LINE
  5
65
330
1F
100
AcDbEntity
  8
0
  6
Continuous
 62
     7
100
AcDbLine
 10
13.85524329350994
 20
32.09638899998151
 30
0.0
 11
-5.19999270649004
 21
32.09638899998151
 31
0.0
  0
LINE
  5
66
330
1F
100
AcDbEntity
  8
0
  6
Continuous
 62
     7
100
AcDbLine
 10
16.50466499999999
 20
34.7963859999999
 30
0.0
 11
-41.93008800000001
 21
34.7963859999999
 31
0.0
  0
LINE
  5
67
330
1F
100
AcDbEntity
  8
0
  6
Continuous
 62
     7
100
AcDbLine
 10
18.946527
 20
20.7963859999999
 30
0.0
 11
16.50466499999999
 21
34.7963859999999
 31
0.0
  0
LINE
  5
68
330
1F
100
AcDbEntity
  8
0
  6
Continuous
 62
     7
100
AcDbLine
 10
12.237491
 20
21.79637100000002
 30
0.0
 11
13.78904800000001
 21
21.7963859999999
 31
0.0
  0
LINE
  5
69
330
1F
100
AcDbEntity
  8
0
  6
Continuous
 62
     7
100
AcDbLine
 10
16.93717899999998
 20
20.7963859999999
 30
0.0
 11
18.946527
 21
20.7963859999999
 31
0.0
  0
LINE
  5
6A
330
1F
100
AcDbEntity
  8
0
  6
Continuous
 62
     7
100
AcDbLine
 10
16.24273299999998
 20
21.79637100000002
 30
0.0
 11
17.78601000000001
 21
21.7963859999999
 31
0.0
  0
LINE
  5
6B
330
1F
100
AcDbEntity
  8
0
  6
Continuous
 62
     7
100
AcDbLine
 10
16.74554929350995
 20
25.31530699998152
 30
0.0
 11
13.35477029350994
 21
25.31530699998152
 31
0.0
  0
LINE
  5
6C
330
1F
100
AcDbEntity
  8
0
  6
Continuous
 62
     7
100
AcDbLine
 10
17.78601000000001
 20
21.7963859999999
 30
0.0
 11
17.23793691104826
 21
24.9021989209952
 31
0.0
  0
LINE
  5
6D
330
1F
100
AcDbEntity
  8
0
  6
Continuous
 62
     7
100
AcDbLine
 10
16.24273299999998
 20
21.79637100000002
 30
0.0
 11
16.93717899999998
 21
20.7963859999999
 31
0.0
  0
LINE
  5
6E
330
1F
100
AcDbEntity
  8
0
  6
Continuous
 62
     7
100
AcDbLine
 10
13.78904800000001
 20
21.7963859999999
 30
0.0
 11
12.99194399999999
 21
20.7963859999999
 31
0.0
  0
LINE
  5
6F
330
1F
100
AcDbEntity
  8
0
  6
Continuous
 62
     7
100
AcDbLine
 10
-31.29999099999998
 20
20.99638299999992
 30
0.0
 11
-31.29997600000002
 21
14.99973999999992
 31
0.0
  0
LINE
  5
70
330
1F
100
AcDbEntity
  8
0
  6
Continuous
 62
     7
100
AcDbLine
 10
-8.19998084611638
 20
23.37896700001721
 30
0.0
 11
-30.79999099999998
 21
23.3789669999999
 31
0.0
  0
LINE
  5
71
330
1F
100
AcDbEntity
  8
0
  6
Continuous
 62
     7
100
AcDbLine
 10
-5.0
 20
20.7963859999999
 30
0.0
 11
-5.00001800000001
 21
0.00144899999992
 31
0.0
  0
LINE
  5
72
330
1F
100
AcDbEntity
  8
0
  6
Continuous
 62
     7
100
AcDbLine
 10
-7.69998500000005
 20
20.99638276438051
 30
0.0
 11
-7.699985
 21
14.95387199999991
 31
0.0
  0
LINE
  5
73
330
1F
100
AcDbEntity
  8
0
  6
Continuous
 62
     7
100
AcDbLine
 10
-8.19998070649004
 20
32.09638899998151
 30
0.0
 11
-30.79998670649002
 21
32.09638899998151
 31
0.0
  0
LINE
  5
74
330
1F
100
AcDbEntity
  8
0
  6
Continuous
 62
     7
100
AcDbLine
 10
-7.69998500000005
 20
31.59638876438052
 30
0.0
 11
-7.69998500000005
 21
23.87896676438052
 31
0.0
  0
LINE
  5
75
330
1F
100
AcDbEntity
  8
0
  6
Continuous
 62
     7
100
AcDbLine
 10
-31.31608899999998
 20
-13.00360899999998
 30
0.0
 11
-31.31608899999998
 21
-20.00360899999998
 31
0.0
  0
LINE
  5
76
330
1F
100
AcDbEntity
  8
0
  6
Continuous
 62
     7
100
AcDbLine
 10
-7.69998500000005
 20
-13.00360923561948
 30
0.0
 11
-7.69998500000003
 21
-20.00360923561948
 31
0.0
  0
LINE
  5
77
330
1F
100
AcDbEntity
  8
0
  6
Continuous
 62
     7
100
AcDbLine
 10
-30.79998670649002
 20
21.49638299998151
 30
0.0
 11
-25.05742199999997
 21
21.49638299999992
 31
0.0
  0
LINE
  5
78
330
1F
100
AcDbEntity
  8
0
  6
Continuous
 62
     7
100
AcDbLine
 10
-30.79999099999998
 20
-10.50361700000008
 30
0.0
 11
-25.21257400000002
 21
-10.50363199999998
 31
0.0
  0
LINE
  5
79
330
1F
100
AcDbEntity
  8
0
  6
Continuous
 62
     7
100
AcDbLine
 10
-30.81608470649002
 20
-12.50360900001849
 30
0.0
 11
-8.19998070649004
 21
-12.50360900001849
 31
0.0
  0
LINE
  5
7A
330
1F
100
AcDbEntity
  8
0
  6
Continuous
 62
     7
100
AcDbLine
 10
0.00000000000003
 20
-18.93786
 30
0.0
 11
0.00000000000003
 21
-23.2050790000001
 31
0.0
  0
LINE
  5
7B
330
1F
100
AcDbEntity
  8
0
  6
Continuous
 62
     7
100
AcDbLine
 10
-2.03346099999999
 20
-19.46343399999998
 30
0.0
 11
0.00000000000003
 21
-18.93786
 31
0.0
  0
LINE
  5
7C
330
1F
100
AcDbEntity
  8
0
  6
Continuous
 62
     7
100
AcDbLine
 10
-5.00001499999999
 20
-2.99855100000008
 30
0.0
 11
-4.99999999999997
 21
-20.50360899999998
 31
0.0
  0
LINE
  5
7D
330
1F
100
AcDbEntity
  8
0
  6
Continuous
 62
     7
100
AcDbLine
 10
0.0
 20
0.0
 30
0.0
 11
-0.00000400000002
 21
-5.48989899999998
 31
0.0
  0
LINE
  5
7E
330
1F
100
AcDbEntity
  8
0
  6
Continuous
 62
     7
100
AcDbLine
 10
-2.03346999999999
 20
-2.99942099999998
 30
0.0
 11
-2.033458
 21
-5.88124099999999
 31
0.0
  0
LINE
  5
7F
330
1F
100
AcDbEntity
  8
0
  6
Continuous
 62
     7
100
AcDbLine
 10
-5.00001800000001
 20
0.00144899999992
 30
0.0
 11
0.0
 21
0.0
 31
0.0
  0
LINE
  5
80
330
1F
100
AcDbEntity
  8
0
  6
Continuous
 62
     7
100
AcDbLine
 10
-5.00001499999999
 20
-2.99855100000008
 30
0.0
 11
-2.03346999999999
 21
-2.99942099999998
 31
0.0
  0
LINE
  5
81
330
1F
100
AcDbEntity
  8
0
  6
Continuous
 62
     7
100
AcDbLine
 10
-41.97113400000001
 20
16.798294
 30
0.0
 11
-40.87253099999998
 21
15.79637100000002
 31
0.0
  0
LINE
  5
82
330
1F
100
AcDbEntity
  8
0
  6
Continuous
 62
     7
100
AcDbLine
 10
-33.94168400000001
 20
-9.22094800000008
 30
0.0
 11
-33.94168400000001
 21
-20.50360899999998
 31
0.0
  0
LINE
  5
83
330
1F
100
AcDbEntity
  8
0
  6
Continuous
 62
     7
100
AcDbLine
 10
-35.92422799999997
 20
-9.22094800000008
 30
0.0
 11
-33.94168400000001
 21
-9.22094800000008
 31
0.0
  0
LINE
  5
84
330
1F
100
AcDbEntity
  8
0
  6
Continuous
 62
     7
100
AcDbLine
 10
-38.93464999999998
 20
-5.96665999999999
 30
0.0
 11
-33.99998799999997
 21
-5.9666290000001
 31
0.0
  0
LINE
  5
85
330
1F
100
AcDbEntity
  8
0
  6
Continuous
 62
     7
100
AcDbLine
 10
-41.93020999999999
 20
-8.72747800000008
 30
0.0
 11
-35.92421300000001
 21
-10.1521460000001
 31
0.0
  0
LINE
  5
86
330
1F
100
AcDbEntity
  8
0
  6
Continuous
 62
     7
100
AcDbLine
 10
-41.12309599999998
 20
-4.19300900000007
 30
0.0
 11
-38.93748799999997
 21
-4.19364999999999
 31
0.0
  0
LINE
  5
87
330
1F
100
AcDbEntity
  8
0
  6
Continuous
 62
     7
100
AcDbLine
 10
-41.93623700000001
 20
-4.98112500000008
 30
0.0
 11
-41.93020999999999
 21
-8.72747800000008
 31
0.0
  0
LINE
  5
88
330
1F
100
AcDbEntity
  8
0
  6
Continuous
 62
     7
100
AcDbLine
 10
-41.93623700000001
 20
-4.98112500000008
 30
0.0
 11
-41.12309599999998
 21
-4.19300900000007
 31
0.0
  0
LINE
  5
89
330
1F
100
AcDbEntity
  8
0
  6
Continuous
 62
     7
100
AcDbLine
 10
-35.92422799999997
 20
-9.22094800000008
 30
0.0
 11
-35.92421300000001
 21
-10.1521460000001
 31
0.0
  0
LINE
  5
8A
330
1F
100
AcDbEntity
  8
0
  6
Continuous
 62
     7
100
AcDbLine
 10
-38.93748799999997
 20
-4.19364999999999
 30
0.0
 11
-38.93464999999998
 21
-5.96665999999999
 31
0.0
  0
LINE
  5
8B
330
1F
100
AcDbEntity
  8
0
  6
Continuous
 62
     7
100
AcDbLine
 10
-38.98726199999999
 20
17.796356
 30
0.0
 11
-38.98405800000001
 21
15.796356
 31
0.0
  0
LINE
  5
8C
330
1F
100
AcDbEntity
  8
0
  6
Continuous
 62
     7
100
AcDbLine
 10
-33.99998799999997
 20
17.7963859999999
 30
0.0
 11
-33.99998799999997
 21
-5.9666290000001
 31
0.0
  0
LINE
  5
8D
330
1F
100
AcDbEntity
  8
0
  6
Continuous
 62
     7
100
AcDbLine
 10
-38.98405800000001
 20
15.796356
 30
0.0
 11
-40.87253099999998
 21
15.79637100000002
 31
0.0
  0
LINE
  5
8E
330
1F
100
AcDbEntity
  8
0
  6
Continuous
 62
     7
100
AcDbLine
 10
-35.97925099999998
 20
21.85574300000002
 30
0.0
 11
-35.97674899999998
 21
20.29637100000002
 31
0.0
  0
LINE
  5
8F
330
1F
100
AcDbEntity
  8
0
  6
Continuous
 62
     7
100
AcDbLine
 10
-41.97661199999999
 20
20.210769
 30
0.0
 11
-41.97113400000001
 21
16.798294
 31
0.0
  0
LINE
  5
90
330
1F
100
AcDbEntity
  8
0
  6
Continuous
 62
     7
100
AcDbLine
 10
-33.99998799999997
 20
17.7963859999999
 30
0.0
 11
-38.98726199999999
 21
17.796356
 31
0.0
  0
LINE
  5
91
330
1F
100
AcDbEntity
  8
0
  6
Continuous
 62
     7
100
AcDbLine
 10
-41.97661199999999
 20
20.210769
 30
0.0
 11
-35.97925099999998
 21
21.85574300000002
 31
0.0
  0
LINE
  5
92
330
1F
100
AcDbEntity
  8
0
  6
Continuous
 62
     7
100
AcDbLine
 10
-33.99998799999997
 20
21.6006009999999
 30
0.0
 11
-33.99998799999997
 21
20.2963859999999
 31
0.0
  0
LINE
  5
93
330
1F
100
AcDbEntity
  8
0
  6
Continuous
 62
     7
100
AcDbLine
 10
-33.99998799999997
 20
20.2963859999999
 30
0.0
 11
-35.97674899999998
 21
20.29637100000002
 31
0.0
  0
LINE
  5
94
330
1F
100
AcDbEntity
  8
0
  6
Continuous
 62
     7
100
AcDbLine
 10
-5.0
 20
20.7963859999999
 30
0.0
 11
12.99194399999999
 21
20.7963859999999
 31
0.0
  0
LINE
  5
95
330
1F
100
AcDbEntity
  8
0
  6
Continuous
 62
     7
100
AcDbLine
 10
-37.995655
 20
32.09635900000001
 30
0.0
 11
-37.993244
 21
30.59555
 31
0.0
  0
LINE
  5
96
330
1F
100
AcDbEntity
  8
0
  6
Continuous
 62
     7
100
AcDbLine
 10
-37.993244
 20
30.59555
 30
0.0
 11
-41.930072
 21
32.07188400000001
 31
0.0
  0
LINE
  5
97
330
1F
100
AcDbEntity
  8
0
  6
Continuous
 62
     7
100
AcDbLine
 10
-31.29999099999998
 20
31.5963889999999
 30
0.0
 11
-31.29999099999998
 21
23.8789669999999
 31
0.0
  0
LINE
  5
98
330
1F
100
AcDbEntity
  8
0
  6
Continuous
 62
     7
100
AcDbLine
 10
-33.99998799999997
 20
32.0963889999999
 30
0.0
 11
-37.995655
 21
32.09635900000001
 31
0.0
  0
LINE
  5
99
330
1F
100
AcDbEntity
  8
0
  6
Continuous
 62
     7
100
AcDbLine
 10
-33.99998799999997
 20
32.0963889999999
 30
0.0
 11
-33.99998799999997
 21
21.6006009999999
 31
0.0
  0
LINE
  5
9A
330
1F
100
AcDbEntity
  8
0
  6
Continuous
 62
     7
100
AcDbLine
 10
-41.91141099999999
 20
-20.45646399999998
 30
0.0
 11
-41.90703199999996
 21
-23.19275099999999
 31
0.0
  0
LINE
  5
9B
330
1F
100
AcDbEntity
  8
0
  6
Continuous
 62
     7
100
AcDbLine
 10
-37.99860000000001
 20
-20.50361700000008
 30
0.0
 11
-33.94168400000001
 21
-20.50360899999998
 31
0.0
  0
LINE
  5
9C
330
1F
100
AcDbEntity
  8
0
  6
Continuous
 62
     7
100
AcDbLine
 10
-41.91141099999999
 20
-20.45646399999998
 30
0.0
 11
-37.997837
 21
-19.02294099999998
 31
0.0
  0
LINE
  5
9D
330
1F
100
AcDbEntity
  8
0
  6
Continuous
 62
     7
100
AcDbLine
 10
-37.997837
 20
-19.02294099999998
 30
0.0
 11
-37.99860000000001
 21
-20.50361700000008
 31
0.0
  0
LINE
  5
9E
330
1F
100
AcDbEntity
  8
0
  6
Continuous
 62
     7
100
AcDbLine
 10
-30.81608899999998
 20
-20.50360899999998
 30
0.0
 11
-8.19998084611635
 21
-20.50360899998279
 31
0.0
  0
LINE
  5
9F
330
1F
100
AcDbEntity
  8
0
  6
Continuous
 62
     7
100
AcDbLine
 10
-41.90703199999996
 20
-23.19275099999999
 30
0.0
 11
0.00000000000003
 21
-23.2050790000001
 31
0.0
  0
LINE
  5
A0
330
1F
100
AcDbEntity
  8
MO_
  6
Continuous
 62
     7
100
AcDbLine
 10
26.44024800000004
 20
-16.10702687891168
 30
0.0
 11
26.44024800000004
 21
-14.16537587891168
 31
0.0
  0
LINE
  5
A1
330
1F
100
AcDbEntity
  8
MO_
  6
Continuous
 62
     7
100
AcDbLine
 10
17.92742004866097
 20
-21.25507839390988
 30
0.0
 11
14.24024700000004
 21
-21.25507887891169
 31
0.0
  0
LINE
  5
A2
330
1F
100
AcDbEntity
  8
MO_
  6
Continuous
 62
     7
100
AcDbLine
 10
17.92741928516911
 20
-8.7550791964473
 30
0.0
 11
14.24024700000004
 21
-8.75507887891169
 31
0.0
  0
LINE
  5
A3
330
1F
100
AcDbEntity
  8
MO_
  6
Continuous
 62
     7
100
AcDbLine
 10
25.44024400000005
 20
-6.05507787891167
 30
0.0
 11
18.12742300000004
 21
-6.05507787891167
 31
0.0
  0
LINE
  5
A4
330
1F
100
AcDbEntity
  8
MO_
  6
Continuous
 62
     7
100
AcDbLine
 10
14.24024700000004
 20
-6.85507887891168
 30
0.0
 11
11.92741900000004
 21
-6.85507887891168
 31
0.0
  0
LINE
  5
A5
330
1F
100
AcDbEntity
  8
MO_
  6
Continuous
 62
     7
100
AcDbLine
 10
14.24024700000004
 20
-23.15507987891169
 30
0.0
 11
11.92741900000004
 21
-23.15507987891169
 31
0.0
  0
LINE
  5
A6
330
1F
100
AcDbEntity
  8
MO_
  6
Continuous
 62
     7
100
AcDbLine
 10
23.74024700000004
 20
-8.75507887891169
 30
0.0
 11
20.92731871483099
 21
-8.7550791964473
 31
0.0
  0
LINE
  5
A7
330
1F
100
AcDbEntity
  8
MO_
  6
Continuous
 62
     7
100
AcDbLine
 10
23.74024700000004
 20
-21.25507887891169
 30
0.0
 11
20.92731791861798
 21
-21.255078472447
 31
0.0
  0
LINE
  5
A8
330
1F
100
AcDbEntity
  8
MO_
  6
Continuous
 62
     7
100
AcDbLine
 10
14.24024700000004
 20
-21.25507887891169
 30
0.0
 11
14.24024700000004
 21
-23.15507987891169
 31
0.0
  0
LINE
  5
A9
330
1F
100
AcDbEntity
  8
MO_
  6
Continuous
 62
     7
100
AcDbLine
 10
23.74024700000004
 20
-21.25507887891169
 30
0.0
 11
23.74024700000004
 21
-8.75507887891169
 31
0.0
  0
LINE
  5
AA
330
1F
100
AcDbEntity
  8
MO_
  6
Continuous
 62
     7
100
AcDbLine
 10
14.24024700000004
 20
-6.85507887891168
 30
0.0
 11
14.24024700000004
 21
-8.75507887891169
 31
0.0
  0
LINE
  5
AB
330
1F
100
AcDbEntity
  8
MO_
  6
Continuous
 62
     7
100
AcDbLine
 10
-8.00000299999995
 20
-40.20507987891168
 30
0.0
 11
-8.00000299999995
 21
-37.54114157752539
 31
0.0
  0
LINE
  5
AC
330
1F
100
AcDbEntity
  8
MO_
  6
Continuous
 62
     7
100
AcDbLine
 10
12.4729822554074
 20
-37.50506687887759
 30
0.0
 11
8.91321300000005
 21
-37.50506687891169
 31
0.0
  0
LINE
  5
AD
330
1F
100
AcDbEntity
  8
MO_
  6
Continuous
 62
     7
100
AcDbLine
 10
7.41149600000004
 20
-37.50506687891169
 30
0.0
 11
4.87013400000004
 21
-37.50506687891169
 31
0.0
  0
LINE
  5
AE
330
1F
100
AcDbEntity
  8
MO_
  6
Continuous
 62
     7
100
AcDbLine
 10
3.36841700000004
 20
-37.50506687891169
 30
0.0
 11
3.36841700000004
 21
-36.54653370532398
 31
0.0
  0
LINE
  5
AF
330
1F
100
AcDbEntity
  8
MO_
  6
Continuous
 62
     7
100
AcDbLine
 10
4.87013400000004
 20
-36.4151504919999
 30
0.0
 11
4.87013400000004
 21
-37.50506687891169
 31
0.0
  0
LINE
  5
B0
330
1F
100
AcDbEntity
  8
MO_
  6
Continuous
 62
     7
100
AcDbLine
 10
7.41149600000004
 20
-37.50506687891169
 30
0.0
 11
7.41149600000004
 21
-36.1928101270843
 31
0.0
  0
LINE
  5
B1
330
1F
100
AcDbEntity
  8
MO_
  6
Continuous
 62
     7
100
AcDbLine
 10
8.91321300000005
 20
-36.06142691376019
 30
0.0
 11
8.91321300000005
 21
-37.50506687891169
 31
0.0
  0
LINE
  5
B2
330
1F
100
AcDbEntity
  8
MO_
  6
Continuous
 62
     7
100
AcDbLine
 10
54.19590500000004
 20
17.90333412108831
 30
0.0
 11
11.92741900000004
 21
17.90333412108831
 31
0.0
  0
LINE
  5
B3
330
1F
100
AcDbEntity
  8
MO_
  6
Continuous
 62
     7
100
AcDbLine
 10
54.19592100000004
 20
13.4307241210883
 30
0.0
 11
54.19590500000004
 21
17.90333412108831
 31
0.0
  0
LINE
  5
B4
330
1F
100
AcDbEntity
  8
MO_
  6
Continuous
 62
     7
100
AcDbLine
 10
70.49513600000004
 20
-40.20509087891168
 30
0.0
 11
-8.00000299999995
 21
-40.20507987891168
 31
0.0
  0
LINE
  5
B5
330
1F
100
AcDbEntity
  8
MO_
  6
Continuous
 62
     7
100
AcDbLine
 10
49.04640700000005
 20
-5.2456528789117
 30
0.0
 11
54.19590500000004
 21
-5.2456528789117
 31
0.0
  0
LINE
  5
B6
330
1F
100
AcDbEntity
  8
MO_
  6
Continuous
 62
     7
100
AcDbLine
 10
49.04640700000005
 20
-26.23631387891169
 30
0.0
 11
49.04640700000005
 21
-5.2456528789117
 31
0.0
  0
LINE
  5
B7
330
1F
100
AcDbEntity
  8
MO_
  6
Continuous
 62
     7
100
AcDbLine
 10
66.81576700000004
 20
-26.23631387891169
 30
0.0
 11
49.04640700000005
 21
-26.23631387891169
 31
0.0
  0
LINE
  5
B8
330
1F
100
AcDbEntity
  8
MO_
  6
Continuous
 62
     7
100
AcDbLine
 10
70.49513600000004
 20
-40.20509087891168
 30
0.0
 11
72.96436200000004
 21
-26.23632587891169
 31
0.0
  0
LINE
  5
B9
330
1F
100
AcDbEntity
  8
MO_
  6
Continuous
 62
     7
100
AcDbLine
 10
11.92741900000004
 20
-6.85507887891168
 30
0.0
 11
11.92741900000004
 21
17.90333412108831
 31
0.0
  0
LINE
  5
BA
330
1F
100
AcDbEntity
  8
MO_
  6
Continuous
 62
     7
100
AcDbLine
 10
-1.64209899999995
 20
-26.1839858789117
 30
0.0
 11
11.92741900000004
 21
-26.18399187891168
 31
0.0
  0
LINE
  5
BB
330
1F
100
AcDbEntity
  8
MO_
  6
Continuous
 62
     7
100
AcDbLine
 10
11.92741900000004
 20
-26.18399187891168
 30
0.0
 11
11.92741900000004
 21
-23.15507987891169
 31
0.0
  0
LINE
  5
BC
330
1F
100
AcDbEntity
  8
MO_
  6
Continuous
 62
     7
100
AcDbLine
 10
49.01251700000006
 20
15.17413212108832
 30
0.0
 11
49.01251700000006
 21
-2.44703787891169
 31
0.0
  0
LINE
  5
BD
330
1F
100
AcDbEntity
  8
MO_
  6
Continuous
 62
     7
100
AcDbLine
 10
54.19590500000004
 20
0.45191812108831
 30
0.0
 11
52.19590500000004
 21
0.81013312108831
 31
0.0
  0
LINE
  5
BE
330
1F
100
AcDbEntity
  8
MO_
  6
Continuous
 62
     7
100
AcDbLine
 10
52.19590500000004
 20
-2.44703787891169
 30
0.0
 11
52.19590500000004
 21
0.81013312108831
 31
0.0
  0
LINE
  5
BF
330
1F
100
AcDbEntity
  8
MO_
  6
Continuous
 62
     7
100
AcDbLine
 10
54.19590500000004
 20
-5.2456528789117
 30
0.0
 11
54.19590500000004
 21
0.45191812108831
 31
0.0
  0
LINE
  5
C0
330
1F
100
AcDbEntity
  8
MO_
  6
Continuous
 62
     7
100
AcDbLine
 10
45.34641830776728
 20
15.20333712105381
 30
0.0
 11
15.62742300000004
 21
15.20333712108831
 31
0.0
  0
LINE
  5
C1
330
1F
100
AcDbEntity
  8
MO_
  6
Continuous
 62
     7
100
AcDbLine
 10
46.34641000000003
 20
-21.50730991381829
 30
0.0
 11
46.34641000000003
 21
14.20333708618171
 31
0.0
  0
LINE
  5
C2
330
1F
100
AcDbEntity
  8
MO_
  6
Continuous
 62
     7
100
AcDbLine
 10
52.19590500000004
 20
15.17413212108832
 30
0.0
 11
49.01251700000006
 21
15.17413212108832
 31
0.0
  0
LINE
  5
C3
330
1F
100
AcDbEntity
  8
MO_
  6
Continuous
 62
     7
100
AcDbLine
 10
52.19591000000004
 20
13.9780961210883
 30
0.0
 11
52.19590500000004
 21
15.17413212108832
 31
0.0
  0
LINE
  5
C4
330
1F
100
AcDbEntity
  8
MO_
  6
Continuous
 62
     7
100
AcDbLine
 10
52.19591000000004
 20
13.9780961210883
 30
0.0
 11
54.19592100000004
 21
13.4307241210883
 31
0.0
  0
LINE
  5
C5
330
1F
100
AcDbEntity
  8
MO_
  6
Continuous
 62
     7
100
AcDbLine
 10
26.44024400000005
 20
-18.02293487891168
 30
0.0
 11
26.44024400013926
 21
-21.5073265642593
 31
0.0
  0
LINE
  5
C6
330
1F
100
AcDbEntity
  8
MO_
  6
Continuous
 62
     7
100
AcDbLine
 10
14.62742300000004
 20
-2.55507800108469
 30
0.0
 11
14.62742300014012
 21
14.2033203833808
 31
0.0
  0
LINE
  5
C7
330
1F
100
AcDbEntity
  8
MO_
  6
Continuous
 62
     7
100
AcDbLine
 10
3.36841700000004
 20
-37.50506687891169
 30
0.0
 11
-3.75415961688891
 21
-37.50506687886059
 31
0.0
  0
LINE
  5
C8
330
1F
100
AcDbEntity
  8
MO_
  6
Continuous
 62
     7
100
AcDbLine
 10
45.34641830776728
 20
-24.08720587894618
 30
0.0
 11
18.51161700000004
 21
-24.08720587891168
 31
0.0
  0
LINE
  5
C9
330
1F
100
AcDbEntity
  8
MO_
  6
Continuous
 62
     7
100
AcDbLine
 10
63.32004730776728
 20
-28.93632687894618
 30
0.0
 11
48.85221600000004
 21
-28.9363268789117
 31
0.0
  0
LINE
  5
CA
330
1F
100
AcDbEntity
  8
MO_
  6
Continuous
 62
     7
100
AcDbLine
 10
-2.24327999999995
 20
-27.20052887891168
 30
0.0
 11
-0.75791099999995
 21
-27.2005328789117
 31
0.0
  0
LINE
  5
CB
330
1F
100
AcDbEntity
  8
MO_
  6
Continuous
 62
     7
100
AcDbLine
 10
-5.32254299999995
 20
-26.18399187891168
 30
0.0
 11
-4.74868999999995
 21
-27.2005328789117
 31
0.0
  0
LINE
  5
CC
330
1F
100
AcDbEntity
  8
MO_
  6
Continuous
 62
     7
100
AcDbLine
 10
-1.64209899999995
 20
-26.1839858789117
 30
0.0
 11
-2.24327999999995
 21
-27.20052887891168
 31
0.0
  0
LINE
  5
CD
330
1F
100
AcDbEntity
  8
MO_
  6
Continuous
 62
     7
100
AcDbLine
 10
-6.23397699999995
 20
-27.2005328789117
 30
0.0
 11
-4.74868999999995
 21
-27.2005328789117
 31
0.0
  0
LINE
  5
CE
330
1F
100
AcDbEntity
  8
MO_
  6
Continuous
 62
     7
100
AcDbLine
 10
-8.00000299999995
 20
-26.18399187891168
 30
0.0
 11
-5.32254299999995
 21
-26.18399187891168
 31
0.0
  0
LINE
  5
CF
330
1F
100
AcDbEntity
  8
MO_
  6
Continuous
 62
     7
100
AcDbLine
 10
-5.86455169500409
 20
-29.3237550964798
 30
0.0
 11
-6.23397699999995
 21
-27.2005328789117
 31
0.0
  0
LINE
  5
D0
330
1F
100
AcDbEntity
  8
MO_
  6
Continuous
 62
     7
100
AcDbLine
 10
-1.05411242143584
 20
-28.90289619346268
 30
0.0
 11
-0.75791099999995
 21
-27.2005328789117
 31
0.0
  0
LINE
  5
D1
330
1F
100
AcDbEntity
  8
MO_
  6
Continuous
 62
     7
100
AcDbLine
 10
13.47297400000004
 20
-35.66249951787248
 30
0.0
 11
13.47297400000004
 21
-36.5050669138183
 31
0.0
  0
LINE
  5
D2
330
1F
100
AcDbEntity
  8
MO_
  6
Continuous
 62
     7
100
AcDbLine
 10
15.01161700012399
 20
-35.52788569814808
 30
0.0
 11
15.01161700013924
 21
-36.50508356425928
 31
0.0
  0
LINE
  5
D3
330
1F
100
AcDbEntity
  8
MO_
  6
Continuous
 62
     7
100
AcDbLine
 10
45.3464182554074
 20
-37.50506687887759
 30
0.0
 11
16.0116252554074
 21
-37.50506687887759
 31
0.0
  0
LINE
  5
D4
330
1F
100
AcDbEntity
  8
MO_
  6
Continuous
 62
     7
100
AcDbLine
 10
67.43366425540741
 20
-37.50506687887759
 30
0.0
 11
48.85222425540741
 21
-37.50506687887759
 31
0.0
  0
LINE
  5
D5
330
1F
100
AcDbEntity
  8
MO_
  6
Continuous
 62
     7
100
AcDbLine
 10
67.34820700000004
 20
-27.1779188789117
 30
0.0
 11
65.85252400000005
 21
-27.17793187891169
 31
0.0
  0
LINE
  5
D6
330
1F
100
AcDbEntity
  8
MO_
  6
Continuous
 62
     7
100
AcDbLine
 10
67.31510325540741
 20
-30.73442187887758
 30
0.0
 11
69.84385125540742
 21
-30.73442187887758
 31
0.0
  0
LINE
  5
D7
330
1F
100
AcDbEntity
  8
MO_
  6
Continuous
 62
     7
100
AcDbLine
 10
67.9194893077673
 20
-32.75674587894619
 30
0.0
 11
65.66901625540741
 21
-32.75674587887758
 31
0.0
  0
LINE
  5
D8
330
1F
100
AcDbEntity
  8
MO_
  6
Continuous
 62
     7
100
AcDbLine
 10
70.39912500000004
 20
-26.23631387891169
 30
0.0
 11
69.83865500000005
 21
-27.1779188789117
 31
0.0
  0
LINE
  5
D9
330
1F
100
AcDbEntity
  8
MO_
  6
Continuous
 62
     7
100
AcDbLine
 10
66.81576700000004
 20
-26.23631387891169
 30
0.0
 11
67.34820700000004
 21
-27.1779188789117
 31
0.0
  0
LINE
  5
DA
330
1F
100
AcDbEntity
  8
MO_
  6
Continuous
 62
     7
100
AcDbLine
 10
70.82712518935051
 20
-29.91651014351479
 30
0.0
 11
71.33427500000005
 21
-27.1779188789117
 31
0.0
  0
LINE
  5
DB
330
1F
100
AcDbEntity
  8
MO_
  6
Continuous
 62
     7
100
AcDbLine
 10
66.33007900000004
 20
-29.90681587891169
 30
0.0
 11
65.85252400000005
 21
-27.17793187891169
 31
0.0
  0
LINE
  5
DC
330
1F
100
AcDbEntity
  8
MO_
  6
Continuous
 62
     7
100
AcDbLine
 10
71.33427500000005
 20
-27.1779188789117
 30
0.0
 11
69.83865500000005
 21
-27.1779188789117
 31
0.0
  0
LINE
  5
DD
330
1F
100
AcDbEntity
  8
MO_
  6
Continuous
 62
     7
100
AcDbLine
 10
72.96436200000004
 20
-26.23632587891169
 30
0.0
 11
70.39912500000004
 21
-26.23631387891169
 31
0.0
  0
LINE
  5
DE
330
1F
100
AcDbEntity
  8
MO_
  6
Continuous
 62
     7
100
AcDbLine
 10
64.68398020307886
 20
-31.92914146845098
 30
0.0
 11
64.30508300000004
 21
-29.7639568789117
 31
0.0
  0
LINE
  5
DF
330
1F
100
AcDbEntity
  8
MO_
  6
Continuous
 62
     7
100
AcDbLine
 10
68.41840000000005
 20
-36.67913987891168
 30
0.0
 11
68.90421461662423
 21
-33.9308139813609
 31
0.0
  0
LINE
  5
E0
330
1F
100
AcDbEntity
  8
MO_
  6
Continuous
 62
     7
100
AcDbLine
 10
27.44025225540741
 20
-22.50730987887758
 30
0.0
 11
45.3464182554074
 21
-22.50730987887758
 31
0.0
  0
LINE
  5
E1
330
1F
100
AcDbEntity
  8
MO_
  6
Continuous
 62
     7
100
AcDbLine
 10
46.34641000000003
 20
-36.5050669138183
 30
0.0
 11
46.34641000000003
 21
-25.08720591381828
 31
0.0
  0
LINE
  5
E2
330
1F
100
AcDbEntity
  8
MO_
  6
Continuous
 62
     7
100
AcDbLine
 10
47.8522160001401
 20
-29.93634361661918
 30
0.0
 11
47.85221600013924
 21
-36.50508356425928
 31
0.0
  0
LINE
  5
E3
330
1F
100
AcDbEntity
  8
MO_
  6
Continuous
 62
     7
100
AcDbLine
 10
52.19590500000004
 20
-2.44703787891169
 30
0.0
 11
49.01251700000006
 21
-2.44703787891169
 31
0.0
  0
LINE
  5
E4
330
1F
100
AcDbEntity
  8
MO_
  6
Continuous
 62
     7
100
AcDbLine
 10
28.93116500000005
 20
-14.16537587891168
 30
0.0
 11
26.44024800000004
 21
-14.16537587891168
 31
0.0
  0
LINE
  5
E5
330
1F
100
AcDbEntity
  8
MO_
  6
Continuous
 62
     7
100
AcDbLine
 10
28.93117000000004
 20
-12.91371987891168
 30
0.0
 11
28.93116500000005
 21
-14.16537587891168
 31
0.0
  0
LINE
  5
E6
330
1F
100
AcDbEntity
  8
MO_
  6
Continuous
 62
     7
100
AcDbLine
 10
26.44025000000005
 20
-12.24947487891168
 30
0.0
 11
28.93117000000004
 21
-12.91371987891168
 31
0.0
  0
LINE
  5
E7
330
1F
100
AcDbEntity
  8
MO_
  6
Continuous
 62
     7
100
AcDbLine
 10
26.44024400000005
 20
-7.05507791381828
 30
0.0
 11
26.44025000000005
 21
-12.24947487891168
 31
0.0
  0
LINE
  5
E8
330
1F
100
AcDbEntity
  8
MO_
  6
Continuous
 62
     7
100
AcDbLine
 10
26.44024400000005
 20
-18.02293487891168
 30
0.0
 11
28.93116500000005
 21
-17.35868987891169
 31
0.0
  0
LINE
  5
E9
330
1F
100
AcDbEntity
  8
MO_
  6
Continuous
 62
     7
100
AcDbLine
 10
28.93116500000005
 20
-17.35868987891169
 30
0.0
 11
28.93116500000005
 21
-16.10702687891168
 31
0.0
  0
LINE
  5
EA
330
1F
100
AcDbEntity
  8
MO_
  6
Continuous
 62
     7
100
AcDbLine
 10
28.93116500000005
 20
-16.10702687891168
 30
0.0
 11
26.44024800000004
 21
-16.10702687891168
 31
0.0
  0
LINE
  5
EB
330
1F
100
AcDbEntity
  8
1
  6
DOT_CENTER
 62
     2
100
AcDbLine
 10
-29.25000299999996
 20
-34.40074886261129
 30
0.0
 11
-6.75000299999995
 21
-34.40074886261129
 31
0.0
  0
LINE
  5
EC
330
1F
100
AcDbEntity
  8
1
  6
Continuous
 62
     7
100
AcDbLine
 10
-12.0284791349297
 20
-29.86302887026969
 30
0.0
 11
-8.00000299999995
 21
-29.51058287717859
 31
0.0
  0
LINE
  5
ED
330
1F
100
AcDbEntity
  8
1
  6
Continuous
 62
     7
100
AcDbLine
 10
-25.50000299999996
 20
-23.20074886261128
 30
0.0
 11
-25.50000299999996
 21
-25.70074886261128
 31
0.0
  0
LINE
  5
EE
330
1F
100
AcDbEntity
  8
1
  6
Continuous
 62
     7
100
AcDbLine
 10
-10.50000299999995
 20
-25.70074886261128
 30
0.0
 11
-10.50000299999995
 21
-23.20074886261128
 31
0.0
  0
LINE
  5
EF
330
1F
100
AcDbEntity
  8
1
  6
Continuous
 62
     7
100
AcDbLine
 10
-24.00000299999996
 20
-25.70074886261128
 30
0.0
 11
-22.45885026541759
 21
-28.3701037011316
 31
0.0
  0
LINE
  5
F0
330
1F
100
AcDbEntity
  8
1
  6
Continuous
 62
     7
100
AcDbLine
 10
-23.30718267697241
 20
-26.90074886261129
 30
0.0
 11
-12.6928233230275
 21
-26.90074886261129
 31
0.0
  0
LINE
  5
F1
330
1F
100
AcDbEntity
  8
1
  6
Continuous
 62
     7
100
AcDbLine
 10
-12.00000299999995
 20
-25.70074886261128
 30
0.0
 11
-13.54115573458232
 21
-28.3701037011316
 31
0.0
  0
LINE
  5
F2
330
1F
100
AcDbEntity
  8
1
  6
DOT_CENTER
 62
     2
100
AcDbLine
 10
-18.00000299999995
 20
4.7101779902236
 30
0.0
 11
-18.00000299999995
 21
-45.65074886261129
 31
0.0
  0
LINE
  5
F3
330
1F
100
AcDbEntity
  8
1
  6
DASHED
 62
     2
100
AcDbLine
 10
-15.10000299999995
 20
-23.20074886261128
 30
0.0
 11
-15.10000299999995
 21
-24.09188151260898
 31
0.0
  0
LINE
  5
F4
330
1F
100
AcDbEntity
  8
1
  6
DASHED
 62
     2
100
AcDbLine
 10
-15.10000299999995
 20
-24.09188151260898
 30
0.0
 11
-13.75000299999995
 21
-25.70074886261128
 31
0.0
  0
LINE
  5
F5
330
1F
100
AcDbEntity
  8
1
  6
DASHED
 62
     2
100
AcDbLine
 10
-20.90000299999996
 20
-23.20074886261128
 30
0.0
 11
-20.90000299999996
 21
-24.09188151260898
 31
0.0
  0
LINE
  5
F6
330
1F
100
AcDbEntity
  8
1
  6
DASHED
 62
     2
100
AcDbLine
 10
-20.90000299999996
 20
-24.09188151260898
 30
0.0
 11
-22.25000299999996
 21
-25.70074886261128
 31
0.0
  0
LINE
  5
F7
330
1F
100
AcDbEntity
  8
1
  6
Continuous
 62
     7
100
AcDbLine
 10
-10.50000299999995
 20
-25.70074886261128
 30
0.0
 11
-25.50000299999996
 21
-25.70074886261128
 31
0.0
  0
LINE
  5
F8
330
1F
100
AcDbEntity
  8
1
  6
DASHED
 62
     2
100
AcDbLine
 10
-15.10000299999995
 20
-24.09188151260898
 30
0.0
 11
-20.90000299999996
 21
-24.09188151260898
 31
0.0
  0
LINE
  5
F9
330
1F
100
AcDbEntity
  8
1
  6
Continuous
 62
     7
100
AcDbLine
 10
32.45730363168848
 20
-25.97102719011369
 30
0.0
 11
34.20183137723988
 21
-26.5210746754519
 31
0.0
  0
LINE
  5
FA
330
1F
100
AcDbEntity
  8
1
  6
Continuous
 62
     7
100
AcDbLine
 10
36.0703388924063
 20
-27.1102128319952
 30
0.0
 11
36.51487719959407
 21
-32.1913089337327
 31
0.0
  0
LINE
  5
FB
330
1F
100
AcDbEntity
  8
1
  6
Continuous
 62
     7
100
AcDbLine
 10
36.51487719959407
 20
-32.1913089337327
 30
0.0
 11
34.77705927937443
 21
-33.0959596828574
 31
0.0
  0
LINE
  5
FC
330
1F
100
AcDbEntity
  8
1
  6
Continuous
 62
     7
100
AcDbLine
 10
32.45730363168848
 20
-25.97102719011369
 30
0.0
 11
32.51831265161182
 21
-26.66836347877788
 31
0.0
  0
LINE
  5
FD
330
1F
100
AcDbEntity
  8
1
  6
Continuous
 62
     2
100
AcDbLine
 10
-7.8275726211039
 20
-30.19817106005809
 30
0.0
 11
34.20183137723988
 21
-26.5210746754519
 31
0.0
  0
LINE
  5
FE
330
1F
100
AcDbEntity
  8
1
  6
Continuous
 62
     7
100
AcDbLine
 10
32.51831265161182
 20
-26.66836347877788
 30
0.0
 11
33.15454957366971
 21
-33.94058477484768
 31
0.0
  0
LINE
  5
FF
330
1F
100
AcDbEntity
  8
1
  6
Continuous
 62
     7
100
AcDbLine
 10
34.20183137723988
 20
-26.5210746754519
 30
0.0
 11
36.0703388924063
 21
-27.1102128319952
 31
0.0
  0
LINE
  5
100
330
1F
100
AcDbEntity
  8
1
  6
Continuous
 62
     2
100
AcDbLine
 10
-7.25234471896936
 20
-36.77305606746359
 30
0.0
 11
34.77705927937443
 21
-33.0959596828574
 31
0.0
  0
LINE
  5
101
330
1F
100
AcDbEntity
  8
1
  6
Continuous
 62
     7
100
AcDbLine
 10
-7.88858164102725
 20
-29.5008347713939
 30
0.0
 11
-7.19133569904598
 21
-37.47039235612789
 31
0.0
  0
LINE
  5
102
330
1F
100
AcDbEntity
  8
1
  6
Continuous
 62
     7
100
AcDbLine
 10
34.77705927937443
 20
-33.0959596828574
 30
0.0
 11
33.15454957366971
 21
-33.94058477484768
 31
0.0
  0
LINE
  5
103
330
1F
100
AcDbEntity
  8
1
  6
DOT_CENTER
 62
     2
100
AcDbLine
 10
-29.7098601309668
 20
-35.4252286130791
 30
0.0
 11
37.92867424935915
 21
-29.50762363729209
 31
0.0
  0
LINE
  5
104
330
1F
100
AcDbEntity
  8
MO_
  6
Continuous
 62
     7
100
AcDbLine
 10
-8.00000299999995
 20
-29.51058287717859
 30
0.0
 11
-8.00000299999995
 21
-26.18399187891168
 31
0.0
  0
LINE
  5
105
330
1F
100
AcDbEntity
  8
1
  6
Continuous
 62
     7
100
AcDbLine
 10
-8.00000299999995
 20
-37.54114157752539
 30
0.0
 11
-11.33123319294841
 21
-37.83258645500368
 31
0.0
  0
LINE
  5
106
330
1F
100
AcDbEntity
  8
1
  6
Continuous
 62
     7
100
AcDbLine
 10
33.15454957366971
 20
-33.94058477484768
 30
0.0
 11
-8.00000299999995
 21
-37.54114157752539
 31
0.0
  0
LINE
  5
107
330
1F
100
AcDbEntity
  8
1
  6
Continuous
 62
     7
100
AcDbLine
 10
-8.00000299999995
 20
-29.51058287717859
 30
0.0
 11
32.45730363168848
 21
-25.97102719011369
 31
0.0
  0
ARC
  5
108
330
1F
100
AcDbEntity
  8
0
  6
Continuous
 62
     7
100
AcDbCircle
 10
-8.19998499999997
 20
-20.00360899999998
 30
0.0
 40
0.5000000000000667
100
AcDbArc
 50
-89.99952399999964
 51
-0.00002700000573
  0
ARC
  5
109
330
1F
100
AcDbEntity
  8
0
  6
Continuous
 62
     7
100
AcDbCircle
 10
-30.81608899999998
 20
-20.00360899999998
 30
0.0
 40
0.5
100
AcDbArc
 50
180.0
 51
-90.0
  0
ARC
  5
10A
330
1F
100
AcDbEntity
  8
0
  6
Continuous
 62
     7
100
AcDbCircle
 10
-8.199985
 20
-13.00360899999998
 30
0.0
 40
0.4999999999999987
100
AcDbArc
 50
-0.00002700000593
 51
89.99950799999999
  0
ARC
  5
10B
330
1F
100
AcDbEntity
  8
0
  6
Continuous
 62
     7
100
AcDbCircle
 10
-30.81608899999998
 20
-13.00360899999998
 30
0.0
 40
0.4999999999999246
100
AcDbArc
 50
89.99950799999999
 51
180.0
  0
ARC
  5
10C
330
1F
100
AcDbEntity
  8
0
  6
Continuous
 62
     7
100
AcDbCircle
 10
-8.199985
 20
-10.00361700000008
 30
0.0
 40
0.4999999999999744
100
AcDbArc
 50
-89.99952399999964
 51
-0.00002699999555
  0
ARC
  5
10D
330
1F
100
AcDbEntity
  8
0
  6
Continuous
 62
     7
100
AcDbCircle
 10
-30.79999099999998
 20
-10.00361700000008
 30
0.0
 40
0.5
100
AcDbArc
 50
180.0
 51
-90.0
  0
ARC
  5
10E
330
1F
100
AcDbEntity
  8
0
  6
Continuous
 62
     7
100
AcDbCircle
 10
16.74554499999999
 20
24.81530700000002
 30
0.0
 40
0.4999999999999997
100
AcDbArc
 50
10.00789299999978
 51
89.99950799999999
  0
ARC
  5
10F
330
1F
100
AcDbEntity
  8
0
  6
Continuous
 62
     7
100
AcDbCircle
 10
13.35476495521054
 20
24.81530614443011
 30
0.0
 40
0.5000008555799067
100
AcDbArc
 50
89.99938827699566
 51
168.6281690284889
  0
ARC
  5
110
330
1F
100
AcDbEntity
  8
0
  6
Continuous
 62
     7
100
AcDbCircle
 10
10.14620567802864
 20
23.87809346086669
 30
0.0
 40
0.4999964609213071
100
AcDbArc
 50
-89.99902873168857
 51
-11.374925201234
  0
ARC
  5
111
330
1F
100
AcDbEntity
  8
0
  6
Continuous
 62
     7
100
AcDbCircle
 10
11.75705518366906
 20
26.81529978034141
 30
0.0
 40
0.5000072198119796
100
AcDbArc
 50
89.99849774458656
 51
168.6293251056911
  0
ARC
  5
112
330
1F
100
AcDbEntity
  8
0
  6
Continuous
 62
     7
100
AcDbCircle
 10
14.51472950598823
 20
27.81531354926581
 30
0.0
 40
0.5000065492504241
100
AcDbArc
 50
-90.00015493774532
 51
9.89241292591437
  0
ARC
  5
113
330
1F
100
AcDbEntity
  8
0
  6
Continuous
 62
     7
100
AcDbCircle
 10
13.85524268905537
 20
31.59638589866967
 30
0.0
 40
0.500003101312201
100
AcDbArc
 50
9.89360439066592
 51
89.9999307350385
  0
ARC
  5
114
330
1F
100
AcDbEntity
  8
0
  6
Continuous
 62
     7
100
AcDbCircle
 10
-5.199997
 20
31.5963889999999
 30
0.0
 40
0.5000000000000419
100
AcDbArc
 50
89.99950799999999
 51
180.0
  0
ARC
  5
115
330
1F
100
AcDbEntity
  8
0
  6
Continuous
 62
     7
100
AcDbCircle
 10
-5.199997
 20
23.87809700000003
 30
0.0
 40
0.5
100
AcDbArc
 50
180.0
 51
-90.0
  0
ARC
  5
116
330
1F
100
AcDbEntity
  8
0
  6
Continuous
 62
     7
100
AcDbCircle
 10
-8.199985
 20
20.99638299999992
 30
0.0
 40
0.4999999999999987
100
AcDbArc
 50
-0.00002699999555
 51
89.99950799999999
  0
ARC
  5
117
330
1F
100
AcDbEntity
  8
0
  6
Continuous
 62
     7
100
AcDbCircle
 10
-30.79999099999998
 20
20.99638299999992
 30
0.0
 40
0.5000000000000241
100
AcDbArc
 50
89.99950799999999
 51
180.0
  0
ARC
  5
118
330
1F
100
AcDbEntity
  8
0
  6
Continuous
 62
     7
100
AcDbCircle
 10
-30.79999099999998
 20
23.8789669999999
 30
0.0
 40
0.5
100
AcDbArc
 50
180.0
 51
-90.0
  0
ARC
  5
119
330
1F
100
AcDbEntity
  8
0
  6
Continuous
 62
     7
100
AcDbCircle
 10
-8.199985
 20
23.8789669999999
 30
0.0
 40
0.4999999999999459
100
AcDbArc
 50
-89.99952399999964
 51
-0.00002699999189
  0
ARC
  5
11A
330
1F
100
AcDbEntity
  8
0
  6
Continuous
 62
     7
100
AcDbCircle
 10
-8.199985
 20
31.5963889999999
 30
0.0
 40
0.4999999999999987
100
AcDbArc
 50
-0.00002699999189
 51
89.99950799999999
  0
ARC
  5
11B
330
1F
100
AcDbEntity
  8
0
  6
Continuous
 62
     7
100
AcDbCircle
 10
-30.79999099999998
 20
31.5963889999999
 30
0.0
 40
0.5000000000000419
100
AcDbArc
 50
89.99950799999999
 51
180.0
  0
ARC
  5
11C
330
1F
100
AcDbEntity
  8
MO_
  6
Continuous
 62
     7
100
AcDbCircle
 10
19.42736900000005
 20
-20.63015087891168
 30
0.0
 40
1.624925000000008
100
AcDbArc
 50
-157.3818019999999
 51
-22.61820099999962
  0
ARC
  5
11D
330
1F
100
AcDbEntity
  8
MO_
  6
Continuous
 62
     7
100
AcDbCircle
 10
19.42736900000005
 20
-9.38000487891168
 30
0.0
 40
1.624924999999997
100
AcDbArc
 50
22.61812800000008
 51
157.3818719999999
  0
ARC
  5
11E
330
1F
100
AcDbEntity
  8
MO_
  6
Continuous
 62
     7
100
AcDbCircle
 10
18.12742300000004
 20
-2.55507787891167
 30
0.0
 40
3.500000000000002
100
AcDbArc
 50
-179.9999980000005
 51
-90.0
  0
ARC
  5
11F
330
1F
100
AcDbEntity
  8
MO_
  6
Continuous
 62
     7
100
AcDbCircle
 10
25.44024400000005
 20
-7.05507787891167
 30
0.0
 40
1.0
100
AcDbArc
 50
-0.00000200000118
 51
90.0
  0
ARC
  5
120
330
1F
100
AcDbEntity
  8
MO_
  6
Continuous
 62
     7
100
AcDbCircle
 10
18.51161700000004
 20
-27.58720587891168
 30
0.0
 40
3.5
100
AcDbArc
 50
90.0
 51
178.5268435813871
  0
ARC
  5
121
330
1F
100
AcDbEntity
  8
MO_
  6
Continuous
 62
     7
100
AcDbCircle
 10
-3.75417199999995
 20
-36.00506687891169
 30
0.0
 40
1.500000000000062
100
AcDbArc
 50
-124.3349286662411
 51
-89.99952699999993
  0
ARC
  5
122
330
1F
100
AcDbEntity
  8
MO_
  6
Continuous
 62
     7
100
AcDbCircle
 10
45.34641000000003
 20
-25.08720587891168
 30
0.0
 40
1.0
100
AcDbArc
 50
-0.00000200000097
 51
89.99952399999924
  0
ARC
  5
123
330
1F
100
AcDbEntity
  8
MO_
  6
Continuous
 62
     7
100
AcDbCircle
 10
45.34641000000003
 20
-21.50730987891168
 30
0.0
 40
0.9999999999999769
100
AcDbArc
 50
-89.99952699999938
 51
-0.00000200000138
  0
ARC
  5
124
330
1F
100
AcDbEntity
  8
MO_
  6
Continuous
 62
     7
100
AcDbCircle
 10
27.44024400000005
 20
-21.50730987891168
 30
0.0
 40
0.9999999999999909
100
AcDbArc
 50
-179.9990440000016
 51
-89.99952699999999
  0
ARC
  5
125
330
1F
100
AcDbEntity
  8
MO_
  6
Continuous
 62
     7
100
AcDbCircle
 10
12.47297400000004
 20
-36.50506687891169
 30
0.0
 40
0.9999999999999769
100
AcDbArc
 50
-89.99952700000009
 51
-0.00000200000118
  0
ARC
  5
126
330
1F
100
AcDbEntity
  8
MO_
  6
Continuous
 62
     7
100
AcDbCircle
 10
16.01161700000004
 20
-36.50506687891169
 30
0.0
 40
0.9999999999999998
100
AcDbArc
 50
-179.9990440000034
 51
-89.99952700000019
  0
ARC
  5
127
330
1F
100
AcDbEntity
  8
MO_
  6
Continuous
 62
     7
100
AcDbCircle
 10
45.34641000000003
 20
-36.50506687891169
 30
0.0
 40
0.9999999999999769
100
AcDbArc
 50
-89.99952699999938
 51
-0.00000200000118
  0
ARC
  5
128
330
1F
100
AcDbEntity
  8
MO_
  6
Continuous
 62
     7
100
AcDbCircle
 10
48.85221600000004
 20
-36.50506687891169
 30
0.0
 40
1.000000000000005
100
AcDbArc
 50
-179.9990440000034
 51
-89.99952699999979
  0
ARC
  5
129
330
1F
100
AcDbEntity
  8
MO_
  6
Continuous
 62
     7
100
AcDbCircle
 10
48.85221600000004
 20
-29.9363268789117
 30
0.0
 40
1.0
100
AcDbArc
 50
90.0
 51
-179.9990410000027
  0
ARC
  5
12A
330
1F
100
AcDbEntity
  8
MO_
  6
Continuous
 62
     7
100
AcDbCircle
 10
63.3200458729642
 20
-29.9363326535972
 30
0.0
 40
1.000005774652049
100
AcDbArc
 50
9.92592253897237
 51
89.99991779231371
  0
ARC
  5
12B
330
1F
100
AcDbEntity
  8
MO_
  6
Continuous
 62
     7
100
AcDbCircle
 10
65.66900800000005
 20
-31.75674587891169
 30
0.0
 40
1.000000000000003
100
AcDbArc
 50
-170.0728670000005
 51
-89.99952699999979
  0
ARC
  5
12C
330
1F
100
AcDbEntity
  8
MO_
  6
Continuous
 62
     7
100
AcDbCircle
 10
67.43366260367375
 20
-36.50506134021519
 30
0.0
 40
1.000005538663764
100
AcDbArc
 50
-89.99990536315687
 51
-10.02498312493457
  0
ARC
  5
12D
330
1F
100
AcDbEntity
  8
MO_
  6
Continuous
 62
     7
100
AcDbCircle
 10
67.31510207835733
 20
-29.73442782606571
 30
0.0
 40
0.9999940528125623
100
AcDbArc
 50
-170.0732457498615
 51
-89.99993255959703
  0
ARC
  5
12E
330
1F
100
AcDbEntity
  8
MO_
  6
Continuous
 62
     7
100
AcDbCircle
 10
69.84384300000005
 20
-29.73442187891169
 30
0.0
 40
0.9999999999999662
100
AcDbArc
 50
-89.99952699999979
 51
-10.49141900000043
  0
ARC
  5
12F
330
1F
100
AcDbEntity
  8
MO_
  6
Continuous
 62
     7
100
AcDbCircle
 10
67.91948100000005
 20
-33.75674587891169
 30
0.0
 40
1.000000000000006
100
AcDbArc
 50
-10.02443200000159
 51
89.99952399999964
  0
ARC
  5
130
330
1F
100
AcDbEntity
  8
MO_
  6
Continuous
 62
     7
100
AcDbCircle
 10
15.62742300000004
 20
14.20333712108831
 30
0.0
 40
1.0
100
AcDbArc
 50
90.0
 51
-179.9990410000009
  0
ARC
  5
131
330
1F
100
AcDbEntity
  8
MO_
  6
Continuous
 62
     7
100
AcDbCircle
 10
45.34641000000003
 20
14.20333712108831
 30
0.0
 40
1.0
100
AcDbArc
 50
-0.00000200000087
 51
89.99952399999924
  0
CIRCLE
  5
132
330
1F
100
AcDbEntity
  8
1
  6
Continuous
 62
     7
100
AcDbCircle
 10
-18.00000299999995
 20
-34.40074886261129
 30
0.0
 40
7.5
  0
ARC
  5
133
102
{ACAD_REACTORS
330
144
330
144
102
}
330
1F
100
AcDbEntity
  8
1
  6
Continuous
 62
     7
100
AcDbCircle
 10
-28.65243900000002
 20
-7.85728499999999
 30
0.0
 40
2.0
100
AcDbArc
 50
180.0
 51
-90.0
  0
ARC
  5
134
102
{ACAD_REACTORS
330
144
330
144
102
}
330
1F
100
AcDbEntity
  8
1
  6
Continuous
 62
     7
100
AcDbCircle
 10
-10.35690600000001
 20
-7.85728499999999
 30
0.0
 40
2.0
100
AcDbArc
 50
-90.0
 51
0.0
  0
ARC
  5
135
102
{ACAD_REACTORS
330
144
330
144
102
}
330
1F
100
AcDbEntity
  8
1
  6
Continuous
 62
     7
100
AcDbCircle
 10
-10.35690600000001
 20
18.82466100000002
 30
0.0
 40
2.0
100
AcDbArc
 50
0.0
 51
90.0
  0
ARC
  5
136
102
{ACAD_REACTORS
330
144
330
144
102
}
330
1F
100
AcDbEntity
  8
1
  6
Continuous
 62
     7
100
AcDbCircle
 10
-28.65243900000002
 20
18.82466100000002
 30
0.0
 40
2.0
100
AcDbArc
 50
90.0
 51
180.0
  0
ARC
  5
137
102
{ACAD_REACTORS
330
144
330
144
102
}
330
1F
100
AcDbEntity
  8
1
  6
Continuous
 62
     7
100
AcDbCircle
 10
-28.65243900000002
 20
-7.85728499999999
 30
0.0
 40
0.5
100
AcDbArc
 50
180.0
 51
-90.0
  0
ARC
  5
138
102
{ACAD_REACTORS
330
144
330
144
102
}
330
1F
100
AcDbEntity
  8
1
  6
Continuous
 62
     7
100
AcDbCircle
 10
-10.35690600000001
 20
-7.85728499999999
 30
0.0
 40
0.5
100
AcDbArc
 50
-90.0
 51
0.0
  0
ARC
  5
139
102
{ACAD_REACTORS
330
144
330
144
102
}
330
1F
100
AcDbEntity
  8
1
  6
Continuous
 62
     7
100
AcDbCircle
 10
-10.35690600000001
 20
18.82466100000002
 30
0.0
 40
0.5
100
AcDbArc
 50
0.0
 51
90.0
  0
ARC
  5
13A
102
{ACAD_REACTORS
330
144
330
144
102
}
330
1F
100
AcDbEntity
  8
1
  6
Continuous
 62
     7
100
AcDbCircle
 10
-28.65243900000002
 20
18.82466100000002
 30
0.0
 40
0.5
100
AcDbArc
 50
90.0
 51
180.0
  0
ARC
  5
13B
102
{ACAD_REACTORS
330
143
330
143
102
}
330
1F
100
AcDbEntity
  8
1
  6
Continuous
 62
     7
100
AcDbCircle
 10
31.93116500000005
 20
-19.50730987887758
 30
0.0
 40
2.0
100
AcDbArc
 50
180.0
 51
-90.0
  0
ARC
  5
13C
102
{ACAD_REACTORS
330
143
330
143
102
}
330
1F
100
AcDbEntity
  8
1
  6
Continuous
 62
     7
100
AcDbCircle
 10
43.34641000000003
 20
-19.50730987887758
 30
0.0
 40
2.0
100
AcDbArc
 50
-90.0
 51
0.0
  0
ARC
  5
13D
102
{ACAD_REACTORS
330
143
330
143
102
}
330
1F
100
AcDbEntity
  8
1
  6
Continuous
 62
     7
100
AcDbCircle
 10
43.34641000000003
 20
12.20333712107287
 30
0.0
 40
2.0
100
AcDbArc
 50
0.0
 51
90.0
  0
ARC
  5
13E
102
{ACAD_REACTORS
330
143
330
143
102
}
330
1F
100
AcDbEntity
  8
1
  6
Continuous
 62
     7
100
AcDbCircle
 10
31.93116500000005
 20
12.20333712107287
 30
0.0
 40
2.0
100
AcDbArc
 50
90.0
 51
180.0
  0
ARC
  5
13F
102
{ACAD_REACTORS
330
143
330
143
102
}
330
1F
100
AcDbEntity
  8
1
  6
Continuous
 62
     7
100
AcDbCircle
 10
43.34641000000003
 20
-19.50730987887758
 30
0.0
 40
0.5
100
AcDbArc
 50
-90.0
 51
0.0
  0
ARC
  5
140
102
{ACAD_REACTORS
330
143
330
143
102
}
330
1F
100
AcDbEntity
  8
1
  6
Continuous
 62
     7
100
AcDbCircle
 10
31.93116500000005
 20
-19.50730987887758
 30
0.0
 40
0.5
100
AcDbArc
 50
180.0
 51
-90.0
  0
ARC
  5
141
102
{ACAD_REACTORS
330
143
330
143
102
}
330
1F
100
AcDbEntity
  8
1
  6
Continuous
 62
     7
100
AcDbCircle
 10
43.34641000000003
 20
12.20333712105614
 30
0.0
 40
0.5
100
AcDbArc
 50
0.0
 51
90.0
  0
ARC
  5
142
102
{ACAD_REACTORS
330
143
330
143
102
}
330
1F
100
AcDbEntity
  8
1
  6
Continuous
 62
     7
100
AcDbCircle
 10
31.93116500000004
 20
12.20333712105613
 30
0.0
 40
0.5
100
AcDbArc
 50
90.0
 51
180.0
  0
HATCH
  5
143
330
1F
100
AcDbEntity
  8
1
  6
Continuous
 62
     3
100
AcDbHatch
 10
0.0
 20
0.0
 30
0.0
210
0.0
220
0.0
230
1.0
  2
SOLID
 70
     1
 71
     1
 91
        2
 92
        1
 93
        8
 72
     1
 10
45.34641000000003
 20
12.20333712107287
 11
45.34641000000003
 21
-19.50730987887758
 72
     2
 10
43.34641000000003
 20
-19.50730987887758
 40
2.0
 50
0.0
 51
90.0
 73
     0
 72
     1
 10
43.34641000000003
 20
-21.50730987887758
 11
31.93116500000005
 21
-21.50730987887758
 72
     2
 10
31.93116500000005
 20
-19.50730987887758
 40
2.0
 50
90.0
 51
180.0
 73
     0
 72
     1
 10
29.93116500000005
 20
-19.50730987887758
 11
29.93116500000005
 21
12.20333712107287
 72
     2
 10
31.93116500000005
 20
12.20333712107287
 40
2.0
 50
180.0
 51
270.0
 73
     0
 72
     1
 10
31.93116500000005
 20
14.20333712107287
 11
43.34641000000003
 21
14.20333712107287
 72
     2
 10
43.34641000000003
 20
12.20333712107287
 40
2.0
 50
270.0
 51
360.0
 73
     0
 97
        8
330
35
330
13C
330
34
330
13B
330
33
330
13E
330
36
330
13D
 92
       16
 93
        8
 72
     2
 10
31.93116500000005
 20
-19.50730987887758
 40
0.5
 50
180.0
 51
270.0
 73
     1
 72
     1
 10
31.93116500000005
 20
-20.00730987887758
 11
43.34641000000003
 21
-20.00730987887758
 72
     2
 10
43.34641000000003
 20
-19.50730987887758
 40
0.5
 50
270.0
 51
360.0
 73
     1
 72
     1
 10
43.84641000000003
 20
-19.50730987887758
 11
43.84641000000003
 21
12.20333712105614
 72
     2
 10
43.34641000000003
 20
12.20333712105614
 40
0.5
 50
0.0
 51
90.0
 73
     1
 72
     1
 10
43.34641000000003
 20
12.70333712105614
 11
31.93116500000004
 21
12.70333712105613
 72
     2
 10
31.93116500000004
 20
12.20333712105613
 40
0.5
 50
90.0
 51
180.0
 73
     1
 72
     1
 10
31.43116500000004
 20
12.20333712105613
 11
31.43116500000005
 21
-19.50730987887758
 97
        8
330
142
330
38
330
141
330
39
330
13F
330
3A
330
140
330
37
 75
     0
 76
     1
 98
        1
 10
0.0
 20
0.0
  0
HATCH
  5
144
330
1F
100
AcDbEntity
  8
1
  6
Continuous
 62
     3
100
AcDbHatch
 10
0.0
 20
0.0
 30
0.0
210
0.0
220
0.0
230
1.0
  2
SOLID
 70
     1
 71
     1
 91
        2
 92
        1
 93
        8
 72
     1
 10
-10.35690600000001
 20
20.82466100000002
 11
-28.65243900000002
 21
20.82466100000002
 72
     2
 10
-28.65243900000002
 20
18.82466100000002
 40
2.0
 50
90.0
 51
180.0
 73
     1
 72
     1
 10
-30.65243900000002
 20
18.82466100000002
 11
-30.65243900000002
 21
-7.85728499999999
 72
     2
 10
-28.65243900000002
 20
-7.85728499999999
 40
2.0
 50
180.0
 51
270.0
 73
     1
 72
     1
 10
-28.65243900000002
 20
-9.857284999999987
 11
-10.35690600000001
 21
-9.85728499999999
 72
     2
 10
-10.35690600000001
 20
-7.85728499999999
 40
2.0
 50
270.0
 51
360.0
 73
     1
 72
     1
 10
-8.35690600000001
 20
-7.85728499999999
 11
-8.35690600000001
 21
18.82466100000002
 72
     2
 10
-10.35690600000001
 20
18.82466100000002
 40
2.0
 50
0.0
 51
90.0
 73
     1
 97
        8
330
3D
330
134
330
3E
330
133
330
3B
330
136
330
3C
330
135
 92
       16
 93
        8
 72
     2
 10
-28.65243900000002
 20
-7.85728499999999
 40
0.5
 50
180.0
 51
270.0
 73
     1
 72
     1
 10
-28.65243900000002
 20
-8.35728499999999
 11
-10.35690600000001
 21
-8.35728499999999
 72
     2
 10
-10.35690600000001
 20
-7.85728499999999
 40
0.5
 50
270.0
 51
360.0
 73
     1
 72
     1
 10
-9.856906000000007
 20
-7.85728499999999
 11
-9.85690600000001
 21
18.82466100000002
 72
     2
 10
-10.35690600000001
 20
18.82466100000002
 40
0.5
 50
0.0
 51
90.0
 73
     1
 72
     1
 10
-10.35690600000001
 20
19.32466100000002
 11
-28.65243900000002
 21
19.32466100000002
 72
     2
 10
-28.65243900000002
 20
18.82466100000002
 40
0.5
 50
90.0
 51
180.0
 73
     1
 72
     1
 10
-29.15243900000002
 20
18.82466100000002
 11
-29.15243900000002
 21
-7.85728499999999
 97
        8
330
13A
330
40
330
139
330
41
330
138
330
42
330
137
330
3F
 75
     0
 76
     1
 98
        1
 10
0.0
 20
0.0
  0
ENDSEC
  0
SECTION
  2
OBJECTS
  0
DICTIONARY
  5
C
330
0
100
AcDbDictionary
281
     1
  3
ACAD_GROUP
350
D
  3
ACAD_LAYOUT
350
1A
  3
ACAD_MLINESTYLE
350
17
  3
ACAD_PLOTSETTINGS
350
19
  3
ACAD_PLOTSTYLENAME
350
E
  0
DICTIONARY
  5
D
102
{ACAD_REACTORS
330
C
102
}
330
C
100
AcDbDictionary
281
     1
  0
DICTIONARY
  5
1A
102
{ACAD_REACTORS
330
C
102
}
330
C
100
AcDbDictionary
281
     1
  3
Layout1
350
1E
  3
Layout2
350
26
  3
Model
350
22
  0
DICTIONARY
  5
17
102
{ACAD_REACTORS
330
C
102
}
330
C
100
AcDbDictionary
281
     1
  3
Standard
350
18
  0
DICTIONARY
  5
19
102
{ACAD_REACTORS
330
C
102
}
330
C
100
AcDbDictionary
281
     1
  0
ACDBDICTIONARYWDFLT
  5
E
102
{ACAD_REACTORS
330
C
102
}
330
C
100
AcDbDictionary
281
     1
  3
Normal
350
F
100
AcDbDictionaryWithDefault
340
F
  0
LAYOUT
  5
1E
102
{ACAD_REACTORS
330
1A
102
}
330
1A
100
AcDbPlotSettings
  1

  2

  4

  6

 40
0.0
 41
0.0
 42
0.0
 43
0.0
 44
0.0
 45
0.0
 46
0.0
 47
0.0
 48
0.0
 49
0.0
140
0.0
141
0.0
142
1.0
143
1.0
 70
   688
 72
     0
 73
     0
 74
     5
  7

 75
    16
 76
     0
 77
     2
 78
   300
147
1.0
148
0.0
149
0.0
100
AcDbLayout
  1
Layout1
 70
     1
 71
     1
 10
0.0
 20
0.0
 11
0.0
 21
0.0
 12
0.0
 22
0.0
 32
0.0
 14
0.0
 24
0.0
 34
0.0
 15
0.0
 25
0.0
 35
0.0
146
0.0
 13
0.0
 23
0.0
 33
0.0
 16
1.0
 26
0.0
 36
0.0
 17
0.0
 27
1.0
 37
0.0
 76
     0
330
1B
  0
LAYOUT
  5
26
102
{ACAD_REACTORS
330
1A
102
}
330
1A
100
AcDbPlotSettings
  1

  2

  4

  6

 40
0.0
 41
0.0
 42
0.0
 43
0.0
 44
0.0
 45
0.0
 46
0.0
 47
0.0
 48
0.0
 49
0.0
140
0.0
141
0.0
142
1.0
143
1.0
 70
   688
 72
     0
 73
     0
 74
     5
  7

 75
    16
 76
     0
 77
     2
 78
   300
147
1.0
148
0.0
149
0.0
100
AcDbLayout
  1
Layout2
 70
     1
 71
     2
 10
0.0
 20
0.0
 11
0.0
 21
0.0
 12
0.0
 22
0.0
 32
0.0
 14
0.0
 24
0.0
 34
0.0
 15
0.0
 25
0.0
 35
0.0
146
0.0
 13
0.0
 23
0.0
 33
0.0
 16
1.0
 26
0.0
 36
0.0
 17
0.0
 27
1.0
 37
0.0
 76
     0
330
23
  0
LAYOUT
  5
22
102
{ACAD_REACTORS
330
1A
102
}
330
1A
100
AcDbPlotSettings
  1

  2

  4

  6

 40
0.0
 41
0.0
 42
0.0
 43
0.0
 44
0.0
 45
0.0
 46
0.0
 47
0.0
 48
0.0
 49
0.0
140
0.0
141
0.0
142
1.0
143
1.0
 70
  1712
 72
     0
 73
     0
 74
     0
  7

 75
     0
 76
     0
 77
     2
 78
   300
147
1.0
148
0.0
149
0.0
100
AcDbLayout
  1
Model
 70
     1
 71
     0
 10
0.0
 20
0.0
 11
0.0
 21
0.0
 12
0.0
 22
0.0
 32
0.0
 14
-41.97661199999999
 24
-45.65074886261129
 34
0.0
 15
72.96436200000004
 25
34.7963859999999
 35
0.0
146
0.0
 13
0.0
 23
0.0
 33
0.0
 16
1.0
 26
0.0
 36
0.0
 17
0.0
 27
1.0
 37
0.0
 76
     0
330
1F
  0
MLINESTYLE
  5
18
102
{ACAD_REACTORS
330
17
102
}
330
17
100
AcDbMlineStyle
  2
Standard
 70
     0
  3

 62
   256
 51
90.0
 52
90.0
 71
     2
 49
0.5
 62
   256
  6
BYLAYER
 49
-0.5
 62
   256
  6
BYLAYER
  0
ACDBPLACEHOLDER
  5
F
102
{ACAD_REACTORS
330
E
102
}
330
E
  0
ENDSEC
  0
EOF
