  0
SECTION
  2
HEADER
  9
$ACADVER
  1
AC1018
  9
$ACADMAINTVER
 70
     0
  9
$DWGCODEPAGE
  3
ANSI_1252
  9
$INSBASE
 10
0.0
 20
0.0
 30
0.0
  9
$EXTMIN
 10
-54.6392636114992
 20
-40.0943320053731
 30
0.0
  9
$EXTMAX
 10
64.22836158854706
 20
41.1218997887195
 30
0.0
  9
$LIMMIN
 10
0.0
 20
0.0
  9
$LIMMAX
 10
12.0
 20
9.0
  9
$ORTHOMODE
 70
     0
  9
$REGENMODE
 70
     1
  9
$FILLMODE
 70
     1
  9
$QTEXTMODE
 70
     0
  9
$MIRRTEXT
 70
     1
  9
$LTSCALE
 40
1.0
  9
$ATTMODE
 70
     1
  9
$TEXTSIZE
 40
0.2
  9
$TRACEWID
 40
0.05
  9
$TEXTSTYLE
  7
Standard
  9
$CLAYER
  8
0
  9
$CELTYPE
  6
ByLayer
  9
$CECOLOR
 62
   256
  9
$CELTSCALE
 40
1.0
  9
$DISPSILH
 70
     0
  9
$DIMSCALE
 40
1.0
  9
$DIMASZ
 40
0.18
  9
$DIMEXO
 40
0.0625
  9
$DIMDLI
 40
0.38
  9
$DIMRND
 40
0.0
  9
$DIMDLE
 40
0.0
  9
$DIMEXE
 40
0.18
  9
$DIMTP
 40
0.0
  9
$DIMTM
 40
0.0
  9
$DIMTXT
 40
0.18
  9
$DIMCEN
 40
0.09
  9
$DIMTSZ
 40
0.0
  9
$DIMTOL
 70
     0
  9
$DIMLIM
 70
     0
  9
$DIMTIH
 70
     1
  9
$DIMTOH
 70
     1
  9
$DIMSE1
 70
     0
  9
$DIMSE2
 70
     0
  9
$DIMTAD
 70
     0
  9
$DIMZIN
 70
     0
  9
$DIMBLK
  1

  9
$DIMASO
 70
     1
  9
$DIMSHO
 70
     1
  9
$DIMPOST
  1

  9
$DIMAPOST
  1

  9
$DIMALT
 70
     0
  9
$DIMALTD
 70
     2
  9
$DIMALTF
 40
25.4
  9
$DIMLFAC
 40
1.0
  9
$DIMTOFL
 70
     0
  9
$DIMTVP
 40
0.0
  9
$DIMTIX
 70
     0
  9
$DIMSOXD
 70
     0
  9
$DIMSAH
 70
     0
  9
$DIMBLK1
  1

  9
$DIMBLK2
  1

  9
$DIMSTYLE
  2
Standard
  9
$DIMCLRD
 70
     0
  9
$DIMCLRE
 70
     0
  9
$DIMCLRT
 70
     0
  9
$DIMTFAC
 40
1.0
  9
$DIMGAP
 40
0.09
  9
$DIMJUST
 70
     0
  9
$DIMSD1
 70
     0
  9
$DIMSD2
 70
     0
  9
$DIMTOLJ
 70
     1
  9
$DIMTZIN
 70
     0
  9
$DIMALTZ
 70
     0
  9
$DIMALTTZ
 70
     0
  9
$DIMUPT
 70
     0
  9
$DIMDEC
 70
     4
  9
$DIMTDEC
 70
     4
  9
$DIMALTU
 70
     2
  9
$DIMALTTD
 70
     2
  9
$DIMTXSTY
  7
Standard
  9
$DIMAUNIT
 70
     0
  9
$DIMADEC
 70
     0
  9
$DIMALTRND
 40
0.0
  9
$DIMAZIN
 70
     0
  9
$DIMDSEP
 70
    46
  9
$DIMATFIT
 70
     3
  9
$DIMFRAC
 70
     0
  9
$DIMLDRBLK
  1

  9
$DIMLUNIT
 70
     2
  9
$DIMLWD
 70
    -2
  9
$DIMLWE
 70
    -2
  9
$DIMTMOVE
 70
     0
  9
$LUNITS
 70
     2
  9
$LUPREC
 70
     4
  9
$SKETCHINC
 40
0.1
  9
$FILLETRAD
 40
0.5
  9
$AUNITS
 70
     0
  9
$AUPREC
 70
     0
  9
$MENU
  1
.
  9
$ELEVATION
 40
0.0
  9
$PELEVATION
 40
0.0
  9
$THICKNESS
 40
0.0
  9
$LIMCHECK
 70
     0
  9
$CHAMFERA
 40
0.5
  9
$CHAMFERB
 40
0.5
  9
$CHAMFERC
 40
1.0
  9
$CHAMFERD
 40
0.0
  9
$SKPOLY
 70
     0
  9
$TDCREATE
 40
2454483.37645471
  9
$TDUCREATE
 40
2454483.334788044
  9
$TDUPDATE
 40
2454483.376454722
  9
$TDUUPDATE
 40
2454483.334788056
  9
$TDINDWG
 40
0.0000000116
  9
$TDUSRTIMER
 40
0.0000000116
  9
$USRTIMER
 70
     1
  9
$ANGBASE
 50
0.0
  9
$ANGDIR
 70
     0
  9
$PDMODE
 70
     0
  9
$PDSIZE
 40
0.0
  9
$PLINEWID
 40
0.0
  9
$SPLFRAME
 70
     0
  9
$SPLINETYPE
 70
     6
  9
$SPLINESEGS
 70
     8
  9
$HANDSEED
  5
1DB
  9
$SURFTAB1
 70
     6
  9
$SURFTAB2
 70
     6
  9
$SURFTYPE
 70
     6
  9
$SURFU
 70
     6
  9
$SURFV
 70
     6
  9
$UCSBASE
  2

  9
$UCSNAME
  2

  9
$UCSORG
 10
0.0
 20
0.0
 30
0.0
  9
$UCSXDIR
 10
1.0
 20
0.0
 30
0.0
  9
$UCSYDIR
 10
0.0
 20
1.0
 30
0.0
  9
$UCSORTHOREF
  2

  9
$UCSORTHOVIEW
 70
     0
  9
$UCSORGTOP
 10
0.0
 20
0.0
 30
0.0
  9
$UCSORGBOTTOM
 10
0.0
 20
0.0
 30
0.0
  9
$UCSORGLEFT
 10
0.0
 20
0.0
 30
0.0
  9
$UCSORGRIGHT
 10
0.0
 20
0.0
 30
0.0
  9
$UCSORGFRONT
 10
0.0
 20
0.0
 30
0.0
  9
$UCSORGBACK
 10
0.0
 20
0.0
 30
0.0
  9
$PUCSBASE
  2

  9
$PUCSNAME
  2

  9
$PUCSORG
 10
0.0
 20
0.0
 30
0.0
  9
$PUCSXDIR
 10
1.0
 20
0.0
 30
0.0
  9
$PUCSYDIR
 10
0.0
 20
1.0
 30
0.0
  9
$PUCSORTHOREF
  2

  9
$PUCSORTHOVIEW
 70
     0
  9
$PUCSORGTOP
 10
0.0
 20
0.0
 30
0.0
  9
$PUCSORGBOTTOM
 10
0.0
 20
0.0
 30
0.0
  9
$PUCSORGLEFT
 10
0.0
 20
0.0
 30
0.0
  9
$PUCSORGRIGHT
 10
0.0
 20
0.0
 30
0.0
  9
$PUCSORGFRONT
 10
0.0
 20
0.0
 30
0.0
  9
$PUCSORGBACK
 10
0.0
 20
0.0
 30
0.0
  9
$USERI1
 70
     0
  9
$USERI2
 70
     0
  9
$USERI3
 70
     0
  9
$USERI4
 70
     0
  9
$USERI5
 70
     0
  9
$USERR1
 40
14.5
  9
$USERR2
 40
0.0
  9
$USERR3
 40
0.0
  9
$USERR4
 40
0.0
  9
$USERR5
 40
0.0
  9
$WORLDVIEW
 70
     1
  9
$SHADEDGE
 70
     3
  9
$SHADEDIF
 70
    70
  9
$TILEMODE
 70
     1
  9
$MAXACTVP
 70
    64
  9
$PINSBASE
 10
0.0
 20
0.0
 30
0.0
  9
$PLIMCHECK
 70
     0
  9
$PEXTMIN
 10
1.00000000000000E+20
 20
1.00000000000000E+20
 30
1.00000000000000E+20
  9
$PEXTMAX
 10
-1.00000000000000E+20
 20
-1.00000000000000E+20
 30
-1.00000000000000E+20
  9
$PLIMMIN
 10
0.0
 20
0.0
  9
$PLIMMAX
 10
12.0
 20
9.0
  9
$UNITMODE
 70
     0
  9
$VISRETAIN
 70
     1
  9
$PLINEGEN
 70
     0
  9
$PSLTSCALE
 70
     1
  9
$TREEDEPTH
 70
  3020
  9
$CMLSTYLE
  2
Standard
  9
$CMLJUST
 70
     0
  9
$CMLSCALE
 40
1.0
  9
$PROXYGRAPHICS
 70
     1
  9
$MEASUREMENT
 70
     1
  9
$CELWEIGHT
370
    -1
  9
$ENDCAPS
280
     0
  9
$JOINSTYLE
280
     0
  9
$LWDISPLAY
290
     0
  9
$INSUNITS
 70
     1
  9
$HYPERLINKBASE
  1

  9
$STYLESHEET
  1

  9
$XEDIT
290
     1
  9
$CEPSNTYPE
380
     0
  9
$PSTYLEMODE
290
     1
  9
$FINGERPRINTGUID
  2
{00C7732F-65FB-4362-9630-9B94BB16C790}
  9
$VERSIONGUID
  2
{FAEB1C32-E019-11D5-929B-00C0DF256EC4}
  9
$EXTNAMES
290
     1
  9
$PSVPSCALE
 40
0.0
  9
$OLESTARTUP
290
     0
  9
$SORTENTS
280
   127
  9
$INDEXCTL
280
     0
  9
$HIDETEXT
280
     1
  9
$XCLIPFRAME
290
     0
  9
$HALOGAP
280
     0
  9
$OBSCOLOR
 70
   257
  9
$OBSLTYPE
280
     0
  9
$INTERSECTIONDISPLAY
280
     0
  9
$INTERSECTIONCOLOR
 70
   257
  9
$DIMASSOC
280
     2
  9
$PROJECTNAME
  1

  0
ENDSEC
  0
SECTION
  2
CLASSES
  0
CLASS
  1
ACDBDICTIONARYWDFLT
  2
AcDbDictionaryWithDefault
  3
ObjectDBX Classes
 90
        0
 91
        3
280
     0
281
     0
  0
CLASS
  1

  2
exOdDbCircle
  3

 90
        0
 91
        3
280
     0
281
     1
  0
ENDSEC
  0
SECTION
  2
TABLES
  0
TABLE
  2
VPORT
  5
8
330
0
100
AcDbSymbolTable
 70
     1
  0
VPORT
  5
29
330
8
100
AcDbSymbolTableRecord
100
AcDbViewportTableRecord
  2
*Active
 70
     0
 10
0.0
 20
0.0
 11
1.0
 21
1.0
 12
4.79454898852393
 22
0.5137838916732
 13
0.0
 23
0.0
 14
0.5
 24
0.5
 15
0.5
 25
0.5
 16
0.0
 26
0.0
 36
1.0
 17
0.0
 27
0.0
 37
0.0
 40
89.33785497350188
 41
1.60267857142857
 42
50.0
 43
0.0
 44
0.0
 50
0.0
 51
0.0
 71
     0
 72
   100
 73
     1
 74
     3
 75
     0
 76
     0
 77
     0
 78
     0
281
     0
 65
     1
110
0.0
120
0.0
130
0.0
111
1.0
121
0.0
131
0.0
112
0.0
122
1.0
132
0.0
 79
     0
146
0.0
  0
ENDTAB
  0
TABLE
  2
LTYPE
  5
5
330
0
100
AcDbSymbolTable
 70
     8
  0
LTYPE
  5
14
330
5
100
AcDbSymbolTableRecord
100
AcDbLinetypeTableRecord
  2
ByBlock
 70
     0
  3

 72
    65
 73
     0
 40
0.0
  0
LTYPE
  5
15
330
5
100
AcDbSymbolTableRecord
100
AcDbLinetypeTableRecord
  2
ByLayer
 70
     0
  3

 72
    65
 73
     0
 40
0.0
  0
LTYPE
  5
16
330
5
100
AcDbSymbolTableRecord
100
AcDbLinetypeTableRecord
  2
Continuous
 70
     0
  3
Solid line
 72
    65
 73
     0
 40
0.0
  0
LTYPE
  5
2A
330
5
100
AcDbSymbolTableRecord
100
AcDbLinetypeTableRecord
  2
DASHED
 70
     0
  3
Dashed
 72
    65
 73
     2
 40
15.0
 49
7.0
 74
     0
 49
-8.0
 74
     0
  0
LTYPE
  5
2B
330
5
100
AcDbSymbolTableRecord
100
AcDbLinetypeTableRecord
  2
DOTTED
 70
     0
  3
Dotted
 72
    65
 73
     2
 40
1.0
 49
0.0
 74
     0
 49
-1.0
 74
     0
  0
LTYPE
  5
2C
330
5
100
AcDbSymbolTableRecord
100
AcDbLinetypeTableRecord
  2
DOT_CENTER
 70
     0
  3
Dot_Center
 72
    65
 73
     4
 40
14.0
 49
12.0
 74
     0
 49
-1.0
 74
     0
 49
0.0
 74
     0
 49
-1.0
 74
     0
  0
LTYPE
  5
2D
330
5
100
AcDbSymbolTableRecord
100
AcDbLinetypeTableRecord
  2
LONG_DASHED
 70
     0
  3
Long_Dashed
 72
    65
 73
     2
 40
15.0
 49
10.0
 74
     0
 49
-5.0
 74
     0
  0
LTYPE
  5
2E
330
5
100
AcDbSymbolTableRecord
100
AcDbLinetypeTableRecord
  2
DASH_CENTER
 70
     0
  3
Dash_Center
 72
    65
 73
     4
 40
14.0
 49
11.0
 74
     0
 49
-1.0
 74
     0
 49
1.0
 74
     0
 49
-1.0
 74
     0
  0
LTYPE
  5
2F
330
5
100
AcDbSymbolTableRecord
100
AcDbLinetypeTableRecord
  2
PHANTOM
 70
     0
  3
Phantom
 72
    65
 73
     6
 40
13.0
 49
10.0
 74
     0
 49
-1.0
 74
     0
 49
0.0
 74
     0
 49
-1.0
 74
     0
 49
0.0
 74
     0
 49
-1.0
 74
     0
  0
LTYPE
  5
30
330
5
100
AcDbSymbolTableRecord
100
AcDbLinetypeTableRecord
  2
CENTER_DASH_DASH
 70
     0
  3
Center_Dash_Dash
 72
    65
 73
     6
 40
14.0
 49
9.0
 74
     0
 49
-1.0
 74
     0
 49
1.0
 74
     0
 49
-1.0
 74
     0
 49
1.0
 74
     0
 49
-1.0
 74
     0
  0
ENDTAB
  0
TABLE
  2
LAYER
  5
2
330
0
100
AcDbSymbolTable
 70
     2
  0
LAYER
  5
10
330
2
100
AcDbSymbolTableRecord
100
AcDbLayerTableRecord
  2
0
 70
     0
 62
     7
  6
Continuous
370
    -3
390
F
  0
LAYER
  5
31
330
2
100
AcDbSymbolTableRecord
100
AcDbLayerTableRecord
  2
1
 70
     0
 62
     7
  6
Continuous
370
    -3
390
F
  0
ENDTAB
  0
TABLE
  2
STYLE
  5
3
330
0
100
AcDbSymbolTable
 70
     1
  0
STYLE
  5
11
330
3
100
AcDbSymbolTableRecord
100
AcDbTextStyleTableRecord
  2
Standard
 70
     0
 40
0.0
 41
1.0
 50
0.0
 71
     0
 42
0.2
  3
txt
  4

  0
ENDTAB
  0
TABLE
  2
VIEW
  5
6
330
0
100
AcDbSymbolTable
 70
     0
  0
ENDTAB
  0
TABLE
  2
UCS
  5
7
330
0
100
AcDbSymbolTable
 70
     0
  0
ENDTAB
  0
TABLE
  2
APPID
  5
9
330
0
100
AcDbSymbolTable
 70
     1
  0
APPID
  5
12
330
9
100
AcDbSymbolTableRecord
100
AcDbRegAppTableRecord
  2
ACAD
 70
     0
  0
ENDTAB
  0
TABLE
  2
DIMSTYLE
  5
A
330
0
100
AcDbSymbolTable
 70
     1
100
AcDbDimStyleTable
  0
DIMSTYLE
105
27
330
A
100
AcDbSymbolTableRecord
100
AcDbDimStyleTableRecord
  2
Standard
 70
     0
340
11
  0
ENDTAB
  0
TABLE
  2
BLOCK_RECORD
  5
1
330
0
100
AcDbSymbolTable
 70
     1
  0
BLOCK_RECORD
  5
1F
330
1
100
AcDbSymbolTableRecord
100
AcDbBlockTableRecord
  2
*Model_Space
340
22
  0
BLOCK_RECORD
  5
1B
330
1
100
AcDbSymbolTableRecord
100
AcDbBlockTableRecord
  2
*Paper_Space
340
1E
  0
BLOCK_RECORD
  5
23
330
1
100
AcDbSymbolTableRecord
100
AcDbBlockTableRecord
  2
*Paper_Space0
340
26
  0
ENDTAB
  0
ENDSEC
  0
SECTION
  2
BLOCKS
  0
BLOCK
  5
20
330
1F
100
AcDbEntity
  8
0
100
AcDbBlockBegin
  2
*Model_Space
 70
     0
 71
     0
 10
0.0
 20
0.0
 30
0.0
  3
*Model_Space
  1

  0
ENDBLK
  5
21
330
1F
100
AcDbEntity
  8
0
100
AcDbBlockEnd
  0
BLOCK
  5
1C
330
1B
100
AcDbEntity
 67
     1
  8
0
100
AcDbBlockBegin
  2
*Paper_Space
 70
     0
 71
     0
 10
0.0
 20
0.0
 30
0.0
  3
*Paper_Space
  1

  0
ENDBLK
  5
1D
330
1B
100
AcDbEntity
 67
     1
  8
0
100
AcDbBlockEnd
  0
BLOCK
  5
24
330
23
100
AcDbEntity
  8
0
100
AcDbBlockBegin
  2
*Paper_Space0
 70
     0
 71
     0
 10
0.0
 20
0.0
 30
0.0
  3
*Paper_Space0
  1

  0
ENDBLK
  5
25
330
23
100
AcDbEntity
  8
0
100
AcDbBlockEnd
  0
ENDSEC
  0
SECTION
  2
ENTITIES
  0
POINT
  5
32
330
1F
100
AcDbEntity
  8
1
 62
     3
 60
     1
100
AcDbPoint
 10
8.8607363885008
 20
6.62189978871949
 30
0.0
  0
POINT
  5
33
330
1F
100
AcDbEntity
  8
1
 62
     3
 60
     1
100
AcDbPoint
 10
-28.6392636114992
 20
-30.3781002112805
 30
0.0
  0
POINT
  5
34
330
1F
100
AcDbEntity
  8
1
 62
     3
 60
     1
100
AcDbPoint
 10
23.90030758847249
 20
-30.59488020764703
 30
0.0
  0
POINT
  5
35
330
1F
100
AcDbEntity
  8
1
 62
     3
 60
     1
100
AcDbPoint
 10
23.90030758847249
 20
-33.3781002112805
 30
0.0
  0
POINT
  5
36
330
1F
100
AcDbEntity
  8
1
 62
     3
 60
     1
100
AcDbPoint
 10
23.90030758847249
 20
-34.3781002112805
 30
0.0
  0
LINE
  5
37
102
{ACAD_REACTORS
330
1DA
330
1DA
102
}
330
1F
100
AcDbEntity
  8
1
  6
Continuous
 62
     7
100
AcDbLine
 10
8.86077855451497
 20
6.62189978871949
 30
0.0
 11
8.8607363885008
 21
6.62189978871949
 31
0.0
  0
LINE
  5
38
102
{ACAD_REACTORS
330
1DA
330
1DA
102
}
330
1F
100
AcDbEntity
  8
1
  6
Continuous
 62
     7
100
AcDbLine
 10
36.36077855451497
 20
-2.3781002112805
 30
0.0
 11
36.36077855451497
 21
-24.3781002112805
 31
0.0
  0
LINE
  5
39
330
1F
100
AcDbEntity
  8
1
  6
DOT_CENTER
 62
     2
100
AcDbLine
 10
-23.63926361149934
 20
-30.3781002112805
 30
0.0
 11
-19.5538039648386
 21
-30.3781002112805
 31
0.0
  0
LINE
  5
3A
330
1F
100
AcDbEntity
  8
1
  6
Continuous
 62
     7
100
AcDbLine
 10
-13.1392636114992
 20
-33.33896168920429
 30
0.0
 11
-15.6392636114992
 21
-33.42626361293366
 31
0.0
  0
LINE
  5
3B
330
1F
100
AcDbEntity
  8
1
  6
Continuous
 62
     7
100
AcDbLine
 10
-11.9686361868943
 20
-26.29381566865717
 30
0.0
 11
-6.77163841145298
 21
-26.11233250729187
 31
0.0
  0
LINE
  5
3C
330
1F
100
AcDbEntity
  8
1
  6
Continuous
 62
     7
100
AcDbLine
 10
-6.77163841145298
 20
-26.11233250729187
 30
0.0
 11
-4.27163841145298
 21
-26.0250305835625
 31
0.0
  0
LINE
  5
3D
330
1F
100
AcDbEntity
  8
1
  6
Continuous
 62
     7
100
AcDbLine
 10
-4.27163841145298
 20
-26.0250305835625
 30
0.0
 11
-2.1392636114992
 21
-25.95056641470331
 31
0.0
  0
LINE
  5
3E
330
1F
100
AcDbEntity
  8
1
  6
Continuous
 62
     7
100
AcDbLine
 10
5.8607363885008
 20
-25.67120025876932
 30
0.0
 11
7.3607363885008
 21
-25.6188191045317
 31
0.0
  0
LINE
  5
3F
330
1F
100
AcDbEntity
  8
1
  6
Continuous
 62
     7
100
AcDbLine
 10
7.3607363885008
 20
-25.6188191045317
 30
0.0
 11
20.20873867397775
 21
-25.1701569782911
 31
0.0
  0
LINE
  5
40
330
1F
100
AcDbEntity
  8
1
  6
Continuous
 62
     7
100
AcDbLine
 10
5.8607363885008
 20
-32.67546706886107
 30
0.0
 11
-0.6392636114992
 21
-32.90245207055745
 31
0.0
  0
LINE
  5
41
330
1F
100
AcDbEntity
  8
1
  6
Continuous
 62
     7
100
AcDbLine
 10
-0.6392636114992
 20
-25.89818526046567
 30
0.0
 11
5.8607363885008
 21
-25.67120025876932
 31
0.0
  0
LINE
  5
42
330
1F
100
AcDbEntity
  8
1
  6
Continuous
 62
     7
100
AcDbLine
 10
7.3607363885008
 20
-32.62308591462346
 30
0.0
 11
5.8607363885008
 21
-32.67546706886107
 31
0.0
  0
LINE
  5
43
330
1F
100
AcDbEntity
  8
1
  6
Continuous
 62
     7
100
AcDbLine
 10
-0.6392636114992
 20
-32.90245207055745
 30
0.0
 11
-2.1392636114992
 21
-32.95483322479507
 31
0.0
  0
LINE
  5
44
330
1F
100
AcDbEntity
  8
1
  6
Continuous
 62
     7
100
AcDbLine
 10
-2.1392636114992
 20
-32.95483322479507
 30
0.0
 11
-13.1392636114992
 21
-33.33896168920429
 31
0.0
  0
LINE
  5
45
330
1F
100
AcDbEntity
  8
1
  6
Continuous
 62
     7
100
AcDbLine
 10
-2.1392636114992
 20
-25.95056641470331
 30
0.0
 11
-0.6392636114992
 21
-25.89818526046567
 31
0.0
  0
LINE
  5
46
330
1F
100
AcDbEntity
  8
1
  6
Continuous
 62
     7
100
AcDbLine
 10
5.8607363885008
 20
-32.67546706886107
 30
0.0
 11
5.8607363885008
 21
-33.8781002112805
 31
0.0
  0
LINE
  5
47
330
1F
100
AcDbEntity
  8
1
  6
Continuous
 62
     7
100
AcDbLine
 10
7.3607363885008
 20
-32.62308591462346
 30
0.0
 11
7.3607363885008
 21
-33.8781002112805
 31
0.0
  0
LINE
  5
48
330
1F
100
AcDbEntity
  8
1
  6
Continuous
 62
     7
100
AcDbLine
 10
-0.6392636114992
 20
-25.89818526046567
 30
0.0
 11
-0.6392636114992
 21
-25.3781002112805
 31
0.0
  0
LINE
  5
49
330
1F
100
AcDbEntity
  8
1
  6
Continuous
 62
     7
100
AcDbLine
 10
-2.1392636114992
 20
-25.95056641470331
 30
0.0
 11
-2.1392636114992
 21
-25.3781002112805
 31
0.0
  0
LINE
  5
4A
330
1F
100
AcDbEntity
  8
1
  6
DOT_CENTER
 62
     2
100
AcDbLine
 10
-39.47691396524613
 20
-30.75655930111585
 30
0.0
 11
25.46673959797492
 21
-28.48867694508269
 31
0.0
  0
LINE
  5
4B
330
1F
100
AcDbEntity
  8
1
  6
DASHED
 62
     2
100
AcDbLine
 10
-19.6392636114992
 20
-33.06564191875124
 30
0.0
 11
-15.6392636114992
 21
-32.92595884078424
 31
0.0
  0
LINE
  5
4C
330
1F
100
AcDbEntity
  8
1
  6
DASHED
 62
     2
100
AcDbLine
 10
-19.6392636114992
 20
-27.06198465295829
 30
0.0
 11
-15.6392636114992
 21
-26.92230157499131
 31
0.0
  0
LINE
  5
4D
330
1F
100
AcDbEntity
  8
1
  6
Continuous
 62
     7
100
AcDbLine
 10
21.6419568468944
 20
-31.62406993478566
 30
0.0
 11
20.45303515089526
 21
-32.16589276742479
 31
0.0
  0
LINE
  5
4E
330
1F
100
AcDbEntity
  8
1
  6
Continuous
 62
     7
100
AcDbLine
 10
-15.6392636114992
 20
-32.92595884078424
 30
0.0
 11
-15.6392636114992
 21
-33.42626361293366
 31
0.0
  0
LINE
  5
4F
330
1F
100
AcDbEntity
  8
1
  6
Continuous
 62
     2
100
AcDbLine
 10
-15.6392636114992
 20
-32.92595884078424
 30
0.0
 11
21.6419568468944
 21
-31.62406993478566
 31
0.0
  0
LINE
  5
50
330
1F
100
AcDbEntity
  8
1
  6
Continuous
 62
     7
100
AcDbLine
 10
21.43255986667938
 20
-25.62772497267108
 30
0.0
 11
23.75720202553418
 21
-26.49687306115137
 31
0.0
  0
LINE
  5
51
330
1F
100
AcDbEntity
  8
1
  6
Continuous
 62
     7
100
AcDbLine
 10
-15.6392636114992
 20
-26.92230157499131
 30
0.0
 11
-15.6392636114992
 21
-32.92595884078424
 31
0.0
  0
LINE
  5
52
330
1F
100
AcDbEntity
  8
1
  6
Continuous
 62
     2
100
AcDbLine
 10
-15.6392636114992
 20
-26.92230157499131
 30
0.0
 11
21.43255986667938
 21
-25.62772497267108
 31
0.0
  0
LINE
  5
53
330
1F
100
AcDbEntity
  8
1
  6
Continuous
 62
     7
100
AcDbLine
 10
-19.6392636114992
 20
-33.06564191875124
 30
0.0
 11
-19.6392636114992
 21
-33.56594669090065
 31
0.0
  0
LINE
  5
54
330
1F
100
AcDbEntity
  8
1
  6
Continuous
 62
     2
100
AcDbLine
 10
-21.66488895090242
 20
-33.13637831430518
 30
0.0
 11
-19.6392636114992
 21
-33.06564191875124
 31
0.0
  0
LINE
  5
55
330
1F
100
AcDbEntity
  8
1
  6
Continuous
 62
     7
100
AcDbLine
 10
-19.6392636114992
 20
-27.06198465295829
 30
0.0
 11
-19.6392636114992
 21
-33.06564191875124
 31
0.0
  0
LINE
  5
56
330
1F
100
AcDbEntity
  8
1
  6
Continuous
 62
     2
100
AcDbLine
 10
-21.87428593111742
 20
-27.1400333521906
 30
0.0
 11
-19.6392636114992
 21
-27.06198465295829
 31
0.0
  0
LINE
  5
57
330
1F
100
AcDbEntity
  8
1
  6
Continuous
 62
     7
100
AcDbLine
 10
20.20873867397775
 20
-25.1701569782911
 30
0.0
 11
20.45303515089526
 21
-32.16589276742479
 31
0.0
  0
LINE
  5
58
330
1F
100
AcDbEntity
  8
1
  6
Continuous
 62
     7
100
AcDbLine
 10
-19.6392636114992
 20
-33.56594669090065
 30
0.0
 11
-21.88790658874981
 21
-33.64447103397845
 31
0.0
  0
LINE
  5
59
330
1F
100
AcDbEntity
  8
1
  6
Continuous
 62
     7
100
AcDbLine
 10
-19.6392636114992
 20
-33.56594669090065
 30
0.0
 11
-19.6392636114992
 21
-34.92413020788778
 31
0.0
  0
LINE
  5
5A
330
1F
100
AcDbEntity
  8
1
  6
DASHED
 62
     2
100
AcDbLine
 10
-15.6392636114992
 20
-33.42626361293366
 30
0.0
 11
-19.6392636114992
 21
-33.56594669090065
 31
0.0
  0
LINE
  5
5B
330
1F
100
AcDbEntity
  8
1
  6
Continuous
 62
     7
100
AcDbLine
 10
-15.6392636114992
 20
-33.42626361293366
 30
0.0
 11
-15.6392636114992
 21
-34.92413020788778
 31
0.0
  0
LINE
  5
5C
330
1F
100
AcDbEntity
  8
1
  6
Continuous
 62
     7
100
AcDbLine
 10
20.45303515089526
 20
-32.16589276742479
 30
0.0
 11
7.3607363885008
 21
-32.62308591462346
 31
0.0
  0
LINE
  5
5D
330
1F
100
AcDbEntity
  8
1
  6
Continuous
 62
     7
100
AcDbLine
 10
23.90030758847249
 20
-30.59488020764703
 30
0.0
 11
21.6419568468944
 21
-31.62406993478566
 31
0.0
  0
LINE
  5
5E
330
1F
100
AcDbEntity
  8
1
  6
Continuous
 62
     7
100
AcDbLine
 10
23.75720202553418
 20
-26.49687306115137
 30
0.0
 11
23.90030758847249
 21
-30.59488020764703
 31
0.0
  0
LINE
  5
5F
330
1F
100
AcDbEntity
  8
1
  6
Continuous
 62
     7
100
AcDbLine
 10
20.20873867397775
 20
-25.1701569782911
 30
0.0
 11
21.43255986667938
 21
-25.62772497267108
 31
0.0
  0
LINE
  5
60
330
1F
100
AcDbEntity
  8
1
  6
Continuous
 62
     7
100
AcDbLine
 10
-15.6392636114992
 20
-26.4219968028419
 30
0.0
 11
-11.9686361868943
 21
-26.29381566865717
 31
0.0
  0
LINE
  5
61
330
1F
100
AcDbEntity
  8
1
  6
Continuous
 62
     7
100
AcDbLine
 10
-15.6392636114992
 20
-26.4219968028419
 30
0.0
 11
-15.6392636114992
 21
-26.92230157499131
 31
0.0
  0
LINE
  5
62
330
1F
100
AcDbEntity
  8
1
  6
DASHED
 62
     2
100
AcDbLine
 10
-19.6392636114992
 20
-26.56167988080889
 30
0.0
 11
-15.6392636114992
 21
-26.4219968028419
 31
0.0
  0
LINE
  5
63
330
1F
100
AcDbEntity
  8
1
  6
Continuous
 62
     7
100
AcDbLine
 10
-19.6392636114992
 20
-26.56167988080889
 30
0.0
 11
-19.6392636114992
 21
-27.06198465295829
 31
0.0
  0
LINE
  5
64
330
1F
100
AcDbEntity
  8
1
  6
Continuous
 62
     7
100
AcDbLine
 10
-22.13220306566733
 20
-26.64873524484478
 30
0.0
 11
-19.6392636114992
 21
-26.56167988080889
 31
0.0
  0
LINE
  5
65
330
1F
100
AcDbEntity
  8
1
  6
Continuous
 62
     7
100
AcDbLine
 10
-15.6392636114992
 20
-34.92413020788778
 30
0.0
 11
-15.6392636114992
 21
-37.8781002112805
 31
0.0
  0
LINE
  5
66
330
1F
100
AcDbEntity
  8
1
  6
Continuous
 62
     7
100
AcDbLine
 10
-19.6392636114992
 20
-34.92413020788778
 30
0.0
 11
-15.6392636114992
 21
-34.92413020788778
 31
0.0
  0
LINE
  5
67
330
1F
100
AcDbEntity
  8
1
  6
Continuous
 62
     7
100
AcDbLine
 10
-19.6392636114992
 20
-24.92413020788778
 30
0.0
 11
-19.6392636114992
 21
-26.56167988080889
 31
0.0
  0
LINE
  5
68
330
1F
100
AcDbEntity
  8
1
  6
Continuous
 62
     7
100
AcDbLine
 10
-15.6392636114992
 20
-24.92413020788778
 30
0.0
 11
-15.6392636114992
 21
-26.4219968028419
 31
0.0
  0
LINE
  5
69
330
1F
100
AcDbEntity
  8
1
  6
Continuous
 62
     7
100
AcDbLine
 10
-15.6392636114992
 20
-24.92413020788778
 30
0.0
 11
-19.6392636114992
 21
-24.92413020788778
 31
0.0
  0
LINE
  5
6A
330
1F
100
AcDbEntity
  8
1
  6
Continuous
 62
     7
100
AcDbLine
 10
8.8607363885008
 20
1.62189978871949
 30
0.0
 11
8.8607363885008
 21
0.62189978871949
 31
0.0
  0
LINE
  5
6B
102
{ACAD_REACTORS
330
1DA
330
1DA
102
}
330
1F
100
AcDbEntity
  8
1
  6
Continuous
 62
     7
100
AcDbLine
 10
8.8607363885008
 20
6.62189978871949
 30
0.0
 11
8.8607363885008
 21
1.62189978871949
 31
0.0
  0
LINE
  5
6C
330
1F
100
AcDbEntity
  8
1
  6
Continuous
 62
     7
100
AcDbLine
 10
8.8607363885008
 20
8.1218997887195
 30
0.0
 11
8.8607363885008
 21
6.62189978871949
 31
0.0
  0
LINE
  5
6D
102
{ACAD_REACTORS
330
1DA
330
1DA
102
}
330
1F
100
AcDbEntity
  8
1
  6
Continuous
 62
     7
100
AcDbLine
 10
8.8607363885008
 20
1.62189978871949
 30
0.0
 11
9.86077855451497
 21
1.62189978871949
 31
0.0
  0
LINE
  5
6E
102
{ACAD_REACTORS
330
1DA
330
1DA
102
}
330
1F
100
AcDbEntity
  8
1
  6
Continuous
 62
     7
100
AcDbLine
 10
9.86077855451497
 20
1.62189978871949
 30
0.0
 11
9.86077855451497
 21
6.62189978871949
 31
0.0
  0
LINE
  5
6F
102
{ACAD_REACTORS
330
1DA
330
1DA
102
}
330
1F
100
AcDbEntity
  8
1
  6
Continuous
 62
     7
100
AcDbLine
 10
9.86077855451497
 20
7.62189978871949
 30
0.0
 11
32.86077855451497
 21
7.62189978871949
 31
0.0
  0
LINE
  5
70
102
{ACAD_REACTORS
330
1DA
330
1DA
102
}
330
1F
100
AcDbEntity
  8
1
  6
Continuous
 62
     7
100
AcDbLine
 10
9.86077855451497
 20
6.62189978871949
 30
0.0
 11
32.86077855451497
 21
6.62189978871949
 31
0.0
  0
LINE
  5
71
330
1F
100
AcDbEntity
  8
1
  6
Continuous
 62
     7
100
AcDbLine
 10
9.86077855451497
 20
7.62189978871949
 30
0.0
 11
32.86077855451497
 21
7.62189978871949
 31
0.0
  0
LINE
  5
72
102
{ACAD_REACTORS
330
1DA
330
1DA
102
}
330
1F
100
AcDbEntity
  8
1
  6
Continuous
 62
     7
100
AcDbLine
 10
32.86077855451497
 20
6.62189978871949
 30
0.0
 11
32.86077855451497
 21
-1.37810021128051
 31
0.0
  0
LINE
  5
73
102
{ACAD_REACTORS
330
1DA
330
1DA
102
}
330
1F
100
AcDbEntity
  8
1
  6
Continuous
 62
     7
100
AcDbLine
 10
33.86077855451497
 20
-1.37810021128051
 30
0.0
 11
33.86077855451497
 21
6.62189978871949
 31
0.0
  0
LINE
  5
74
102
{ACAD_REACTORS
330
1DA
330
1DA
102
}
330
1F
100
AcDbEntity
  8
1
  6
Continuous
 62
     7
100
AcDbLine
 10
35.36077855451497
 20
-1.37810021128051
 30
0.0
 11
33.86077855451497
 21
-1.37810021128051
 31
0.0
  0
LINE
  5
75
102
{ACAD_REACTORS
330
1DA
330
1DA
102
}
330
1F
100
AcDbEntity
  8
1
  6
Continuous
 62
     7
100
AcDbLine
 10
33.86077855451497
 20
-2.3781002112805
 30
0.0
 11
35.36077855451497
 21
-2.3781002112805
 31
0.0
  0
LINE
  5
76
102
{ACAD_REACTORS
330
1DA
330
1DA
102
}
330
1F
100
AcDbEntity
  8
1
  6
Continuous
 62
     7
100
AcDbLine
 10
35.36077855451497
 20
-2.3781002112805
 30
0.0
 11
35.36077855451497
 21
-13.3781002112805
 31
0.0
  0
LINE
  5
77
330
1F
100
AcDbEntity
  8
1
  6
Continuous
 62
     7
100
AcDbLine
 10
36.36077855451497
 20
-24.3781002112805
 30
0.0
 11
36.36077855451497
 21
-25.8781002112805
 31
0.0
  0
LINE
  5
78
102
{ACAD_REACTORS
330
1DA
330
1DA
102
}
330
1F
100
AcDbEntity
  8
1
  6
Continuous
 62
     7
100
AcDbLine
 10
33.86077855451497
 20
-25.3781002112805
 30
0.0
 11
35.36077855451497
 21
-25.3781002112805
 31
0.0
  0
LINE
  5
79
102
{ACAD_REACTORS
330
1DA
330
1DA
102
}
330
1F
100
AcDbEntity
  8
1
  6
Continuous
 62
     7
100
AcDbLine
 10
33.86077855451497
 20
-28.3781002112805
 30
0.0
 11
33.86077855451497
 21
-25.3781002112805
 31
0.0
  0
LINE
  5
7A
102
{ACAD_REACTORS
330
1DA
330
1DA
102
}
330
1F
100
AcDbEntity
  8
1
  6
Continuous
 62
     7
100
AcDbLine
 10
32.86077855451497
 20
-34.3781002112805
 30
0.0
 11
23.90030758847249
 21
-34.3781002112805
 31
0.0
  0
LINE
  5
7B
102
{ACAD_REACTORS
330
1DA
330
1DA
102
}
330
1F
100
AcDbEntity
  8
1
  6
Continuous
 62
     7
100
AcDbLine
 10
32.86077855451497
 20
-33.3781002112805
 30
0.0
 11
23.90030758847249
 21
-33.3781002112805
 31
0.0
  0
LINE
  5
7C
102
{ACAD_REACTORS
330
1DA
330
1DA
102
}
330
1F
100
AcDbEntity
  8
1
  6
Continuous
 62
     7
100
AcDbLine
 10
32.86077855451497
 20
-25.3781002112805
 30
0.0
 11
32.86077855451497
 21
-33.3781002112805
 31
0.0
  0
LINE
  5
7D
102
{ACAD_REACTORS
330
1DA
330
1DA
102
}
330
1F
100
AcDbEntity
  8
1
  6
Continuous
 62
     7
100
AcDbLine
 10
35.36077855451497
 20
-24.3781002112805
 30
0.0
 11
33.86077855451497
 21
-24.3781002112805
 31
0.0
  0
LINE
  5
7E
102
{ACAD_REACTORS
330
1DA
330
1DA
102
}
330
1F
100
AcDbEntity
  8
1
  6
Continuous
 62
     7
100
AcDbLine
 10
35.36077855451497
 20
-13.3781002112805
 30
0.0
 11
35.36077855451497
 21
-24.3781002112805
 31
0.0
  0
LINE
  5
7F
102
{ACAD_REACTORS
330
1D9
330
1D9
102
}
330
1F
100
AcDbEntity
  8
1
  6
Continuous
 62
     7
100
AcDbLine
 10
-16.1392636114992
 20
-9.8781002112805
 30
0.0
 11
-16.1392636114992
 21
-9.3781002112805
 31
0.0
  0
LINE
  5
80
102
{ACAD_REACTORS
330
1D9
330
1D9
102
}
330
1F
100
AcDbEntity
  8
1
  6
Continuous
 62
     7
100
AcDbLine
 10
-16.1392636114992
 20
-9.8781002112805
 30
0.0
 11
-36.1392636114992
 21
-9.8781002112805
 31
0.0
  0
LINE
  5
81
102
{ACAD_REACTORS
330
1D9
330
1D9
102
}
330
1F
100
AcDbEntity
  8
1
  6
Continuous
 62
     7
100
AcDbLine
 10
-16.1392636114992
 20
-8.8781002112805
 30
0.0
 11
-16.1392636114992
 21
-9.3781002112805
 31
0.0
  0
LINE
  5
82
102
{ACAD_REACTORS
330
1D9
330
1D9
102
}
330
1F
100
AcDbEntity
  8
1
  6
Continuous
 62
     7
100
AcDbLine
 10
-36.1392636114992
 20
-8.8781002112805
 30
0.0
 11
-16.1392636114992
 21
-8.8781002112805
 31
0.0
  0
LINE
  5
83
102
{ACAD_REACTORS
330
1D9
330
1D9
102
}
330
1F
100
AcDbEntity
  8
1
  6
Continuous
 62
     7
100
AcDbLine
 10
-36.1392636114992
 20
23.1218997887195
 30
0.0
 11
-36.1392636114992
 21
-8.8781002112805
 31
0.0
  0
LINE
  5
84
102
{ACAD_REACTORS
330
1D9
330
1D9
102
}
330
1F
100
AcDbEntity
  8
1
  6
Continuous
 62
     7
100
AcDbLine
 10
-16.1392636114992
 20
23.1218997887195
 30
0.0
 11
-36.1392636114992
 21
23.1218997887195
 31
0.0
  0
LINE
  5
85
102
{ACAD_REACTORS
330
1D9
330
1D9
102
}
330
1F
100
AcDbEntity
  8
1
  6
Continuous
 62
     7
100
AcDbLine
 10
-16.1392636114992
 20
24.1218997887195
 30
0.0
 11
-16.1392636114992
 21
23.1218997887195
 31
0.0
  0
LINE
  5
86
102
{ACAD_REACTORS
330
1D9
330
1D9
102
}
330
1F
100
AcDbEntity
  8
1
  6
Continuous
 62
     7
100
AcDbLine
 10
-36.1392636114992
 20
24.1218997887195
 30
0.0
 11
-16.1392636114992
 21
24.1218997887195
 31
0.0
  0
LINE
  5
87
330
1F
100
AcDbEntity
  8
1
  6
Continuous
 62
     7
100
AcDbLine
 10
-37.1392636114992
 20
23.1218997887195
 30
0.0
 11
-37.1392636114992
 21
24.6218997887195
 31
0.0
  0
LINE
  5
88
102
{ACAD_REACTORS
330
1D9
330
1D9
102
}
330
1F
100
AcDbEntity
  8
1
  6
Continuous
 62
     7
100
AcDbLine
 10
-37.1392636114992
 20
-8.8781002112805
 30
0.0
 11
-37.1392636114992
 21
23.1218997887195
 31
0.0
  0
LINE
  5
89
330
1F
100
AcDbEntity
  8
1
  6
DASHED
 62
     2
100
AcDbLine
 10
-29.8892636114992
 20
-18.99459302609208
 30
0.0
 11
-34.3892636114992
 21
-18.99459302609208
 31
0.0
  0
LINE
  5
8A
330
1F
100
AcDbEntity
  8
1
  6
Continuous
 62
     7
100
AcDbLine
 10
-28.6392636114992
 20
-21.3781002112805
 30
0.0
 11
-27.8892636114992
 21
-21.3781002112805
 31
0.0
  0
LINE
  5
8B
330
1F
100
AcDbEntity
  8
1
  6
DASHED
 62
     2
100
AcDbLine
 10
-27.8892636114992
 20
-21.3781002112805
 30
0.0
 11
-29.8892636114992
 21
-18.99459302609208
 31
0.0
  0
LINE
  5
8C
330
1F
100
AcDbEntity
  8
1
  6
DASHED
 62
     2
100
AcDbLine
 10
-29.8892636114992
 20
-18.99459302609208
 30
0.0
 11
-29.8892636114992
 21
-18.8781002112805
 31
0.0
  0
LINE
  5
8D
330
1F
100
AcDbEntity
  8
1
  6
Continuous
 62
     7
100
AcDbLine
 10
-36.6392636114992
 20
-21.3781002112805
 30
0.0
 11
-36.3892636114992
 21
-21.3781002112805
 31
0.0
  0
LINE
  5
8E
330
1F
100
AcDbEntity
  8
1
  6
DASHED
 62
     2
100
AcDbLine
 10
-36.3892636114992
 20
-21.3781002112805
 30
0.0
 11
-34.3892636114992
 21
-18.99459302609208
 31
0.0
  0
LINE
  5
8F
330
1F
100
AcDbEntity
  8
1
  6
DASHED
 62
     2
100
AcDbLine
 10
-34.3892636114992
 20
-18.99459302609208
 30
0.0
 11
-34.3892636114992
 21
-18.8781002112805
 31
0.0
  0
LINE
  5
90
330
1F
100
AcDbEntity
  8
1
  6
Continuous
 62
     7
100
AcDbLine
 10
-33.77323820771476
 20
-22.8781002112805
 30
0.0
 11
-32.1392636114992
 21
-22.8781002112805
 31
0.0
  0
LINE
  5
91
330
1F
100
AcDbEntity
  8
1
  6
DOT_CENTER
 62
     2
100
AcDbLine
 10
-32.1392636114992
 20
-22.8781002112805
 30
0.0
 11
-32.13926361149922
 21
12.6218997887195
 31
0.0
  0
LINE
  5
92
330
1F
100
AcDbEntity
  8
1
  6
DASHED
 62
     2
100
AcDbLine
 10
-20.8892636114992
 20
-18.99459302609208
 30
0.0
 11
-25.3892636114992
 21
-18.99459302609208
 31
0.0
  0
LINE
  5
93
330
1F
100
AcDbEntity
  8
1
  6
Continuous
 62
     7
100
AcDbLine
 10
-20.6392636114992
 20
-21.3781002112805
 30
0.0
 11
-18.8892636114992
 21
-21.3781002112805
 31
0.0
  0
LINE
  5
94
330
1F
100
AcDbEntity
  8
1
  6
DASHED
 62
     2
100
AcDbLine
 10
-18.8892636114992
 20
-21.3781002112805
 30
0.0
 11
-20.8892636114992
 21
-18.99459302609208
 31
0.0
  0
LINE
  5
95
330
1F
100
AcDbEntity
  8
1
  6
Continuous
 62
     7
100
AcDbLine
 10
-25.3892636114992
 20
-18.8781002112805
 30
0.0
 11
-20.8892636114992
 21
-18.8781002112805
 31
0.0
  0
LINE
  5
96
330
1F
100
AcDbEntity
  8
1
  6
DASHED
 62
     2
100
AcDbLine
 10
-20.8892636114992
 20
-18.99459302609208
 30
0.0
 11
-20.8892636114992
 21
-18.8781002112805
 31
0.0
  0
LINE
  5
97
330
1F
100
AcDbEntity
  8
1
  6
Continuous
 62
     7
100
AcDbLine
 10
-27.8892636114992
 20
-21.3781002112805
 30
0.0
 11
-27.38926361149919
 21
-21.3781002112805
 31
0.0
  0
LINE
  5
98
330
1F
100
AcDbEntity
  8
1
  6
DASHED
 62
     2
100
AcDbLine
 10
-27.38926361149919
 20
-21.3781002112805
 30
0.0
 11
-25.3892636114992
 21
-18.99459302609208
 31
0.0
  0
LINE
  5
99
330
1F
100
AcDbEntity
  8
1
  6
DASHED
 62
     2
100
AcDbLine
 10
-25.3892636114992
 20
-18.99459302609208
 30
0.0
 11
-25.3892636114992
 21
-18.8781002112805
 31
0.0
  0
LINE
  5
9A
330
1F
100
AcDbEntity
  8
1
  6
Continuous
 62
     7
100
AcDbLine
 10
-28.6392636114992
 20
-22.8781002112805
 30
0.0
 11
-23.1392636114992
 21
-22.8781002112805
 31
0.0
  0
LINE
  5
9B
330
1F
100
AcDbEntity
  8
1
  6
DOT_CENTER
 62
     2
100
AcDbLine
 10
-23.1392636114992
 20
-22.8781002112805
 30
0.0
 11
-23.1392636114992
 21
12.6218997887195
 31
0.0
  0
LINE
  5
9C
330
1F
100
AcDbEntity
  8
1
  6
DOT_CENTER
 62
     2
100
AcDbLine
 10
-28.6392636114992
 20
-20.444836003096
 30
0.0
 11
-28.6392636114992
 21
-40.0943320053731
 31
0.0
  0
LINE
  5
9D
330
1F
100
AcDbEntity
  8
1
  6
DOT_CENTER
 62
     2
100
AcDbLine
 10
-38.1085257652969
 20
-30.3781002112805
 30
0.0
 11
-23.63926361149934
 21
-30.3781002112805
 31
0.0
  0
LINE
  5
9E
330
1F
100
AcDbEntity
  8
1
  6
Continuous
 62
     7
100
AcDbLine
 10
-22.98835632936719
 20
-25.44684815031793
 30
0.0
 11
-21.50528901528363
 21
-22.8781002112805
 31
0.0
  0
LINE
  5
9F
330
1F
100
AcDbEntity
  8
1
  6
Continuous
 62
     7
100
AcDbLine
 10
-32.97596007584126
 20
-24.25902644344902
 30
0.0
 11
-33.77323820771476
 21
-22.8781002112805
 31
0.0
  0
LINE
  5
A0
330
1F
100
AcDbEntity
  8
1
  6
Continuous
 62
     7
100
AcDbLine
 10
-36.3892636114992
 20
-21.3781002112805
 30
0.0
 11
-34.6392636114992
 21
-21.3781002112805
 31
0.0
  0
LINE
  5
A1
330
1F
100
AcDbEntity
  8
1
  6
Continuous
 62
     7
100
AcDbLine
 10
-34.6392636114992
 20
-21.3781002112805
 30
0.0
 11
-33.77323820771476
 21
-22.8781002112805
 31
0.0
  0
LINE
  5
A2
330
1F
100
AcDbEntity
  8
1
  6
Continuous
 62
     7
100
AcDbLine
 10
-23.1392636114992
 20
-22.8781002112805
 30
0.0
 11
-21.50528901528363
 21
-22.8781002112805
 31
0.0
  0
LINE
  5
A3
330
1F
100
AcDbEntity
  8
1
  6
Continuous
 62
     7
100
AcDbLine
 10
-27.38926361149919
 20
-21.3781002112805
 30
0.0
 11
-20.6392636114992
 21
-21.3781002112805
 31
0.0
  0
LINE
  5
A4
330
1F
100
AcDbEntity
  8
1
  6
Continuous
 62
     7
100
AcDbLine
 10
-21.50528901528363
 20
-22.8781002112805
 30
0.0
 11
-20.6392636114992
 21
-21.3781002112805
 31
0.0
  0
LINE
  5
A5
330
1F
100
AcDbEntity
  8
1
  6
Continuous
 62
     7
100
AcDbLine
 10
-36.6392636114992
 20
-18.8781002112805
 30
0.0
 11
-36.6392636114992
 21
-21.3781002112805
 31
0.0
  0
LINE
  5
A6
330
1F
100
AcDbEntity
  8
1
  6
Continuous
 62
     7
100
AcDbLine
 10
-18.8892636114992
 20
-21.3781002112805
 30
0.0
 11
-18.6392636114992
 21
-21.3781002112805
 31
0.0
  0
LINE
  5
A7
330
1F
100
AcDbEntity
  8
1
  6
Continuous
 62
     7
100
AcDbLine
 10
-20.8892636114992
 20
-18.8781002112805
 30
0.0
 11
-18.6392636114992
 21
-18.8781002112805
 31
0.0
  0
LINE
  5
A8
330
1F
100
AcDbEntity
  8
1
  6
Continuous
 62
     7
100
AcDbLine
 10
-18.6392636114992
 20
-21.3781002112805
 30
0.0
 11
-18.6392636114992
 21
-18.8781002112805
 31
0.0
  0
LINE
  5
A9
330
1F
100
AcDbEntity
  8
1
  6
Continuous
 62
     7
100
AcDbLine
 10
38.86077855451497
 20
-15.8781002112805
 30
0.0
 11
38.86077855451497
 21
-25.52071615891984
 31
0.0
  0
LINE
  5
AA
330
1F
100
AcDbEntity
  8
1
  6
Continuous
 62
     7
100
AcDbLine
 10
41.86077855451499
 20
-15.3781002112805
 30
0.0
 11
39.36077855451497
 21
-15.3781002112805
 31
0.0
  0
LINE
  5
AB
330
1F
100
AcDbEntity
  8
1
  6
Continuous
 62
     7
100
AcDbLine
 10
42.36077855451499
 20
-18.01207480749606
 30
0.0
 11
42.36077855451499
 21
-15.8781002112805
 31
0.0
  0
LINE
  5
AC
330
1F
100
AcDbEntity
  8
1
  6
Continuous
 62
     7
100
AcDbLine
 10
42.86077855451499
 20
-18.8781002112805
 30
0.0
 11
42.36077855451499
 21
-18.01207480749606
 31
0.0
  0
LINE
  5
AD
330
1F
100
AcDbEntity
  8
1
  6
Continuous
 62
     7
100
AcDbLine
 10
44.36077855451499
 20
-18.8781002112805
 30
0.0
 11
42.86077855451499
 21
-18.8781002112805
 31
0.0
  0
LINE
  5
AE
330
1F
100
AcDbEntity
  8
1
  6
Continuous
 62
     7
100
AcDbLine
 10
44.36077855451499
 20
-13.3781002112805
 30
0.0
 11
44.36077855451499
 21
-18.8781002112805
 31
0.0
  0
LINE
  5
AF
330
1F
100
AcDbEntity
  8
1
  6
Continuous
 62
     7
100
AcDbLine
 10
39.36077855451497
 20
-13.3781002112805
 30
0.0
 11
44.36077855451499
 21
-13.3781002112805
 31
0.0
  0
LINE
  5
B0
330
1F
100
AcDbEntity
  8
1
  6
Continuous
 62
     7
100
AcDbLine
 10
38.86077855451497
 20
7.1218997887195
 30
0.0
 11
38.86077855451497
 21
-12.8781002112805
 31
0.0
  0
LINE
  5
B1
330
1F
100
AcDbEntity
  8
1
  6
Continuous
 62
     7
100
AcDbLine
 10
44.36077855451499
 20
7.1218997887195
 30
0.0
 11
57.3607363885008
 21
7.1218997887195
 31
0.0
  0
LINE
  5
B2
330
1F
100
AcDbEntity
  8
1
  6
Continuous
 62
     7
100
AcDbLine
 10
44.36077855451499
 20
5.1218997887195
 30
0.0
 11
44.36077855451499
 21
7.1218997887195
 31
0.0
  0
LINE
  5
B3
330
1F
100
AcDbEntity
  8
1
  6
Continuous
 62
     7
100
AcDbLine
 10
42.3966769393772
 20
5.1218997887195
 30
0.0
 11
44.36077855451499
 21
5.1218997887195
 31
0.0
  0
LINE
  5
B4
330
1F
100
AcDbEntity
  8
1
  6
Continuous
 62
     7
100
AcDbLine
 10
41.86077855451499
 20
7.1218997887195
 30
0.0
 11
42.3966769393772
 21
5.1218997887195
 31
0.0
  0
LINE
  5
B5
330
1F
100
AcDbEntity
  8
1
  6
Continuous
 62
     7
100
AcDbLine
 10
38.86077855451497
 20
7.1218997887195
 30
0.0
 11
41.86077855451499
 21
7.1218997887195
 31
0.0
  0
LINE
  5
B6
330
1F
100
AcDbEntity
  8
1
  6
Continuous
 62
     7
100
AcDbLine
 10
36.36077855451497
 20
7.6218997887195
 30
0.0
 11
36.36077855451497
 21
-2.3781002112805
 31
0.0
  0
LINE
  5
B7
330
1F
100
AcDbEntity
  8
1
  6
Continuous
 62
     7
100
AcDbLine
 10
8.8607363885008
 20
8.1218997887195
 30
0.0
 11
35.86077855451497
 21
8.1218997887195
 31
0.0
  0
LINE
  5
B8
330
1F
100
AcDbEntity
  8
1
  6
Continuous
 62
     7
100
AcDbLine
 10
8.3607363885008
 20
-34.8781002112805
 30
0.0
 11
33.86077855451497
 21
-34.8781002112805
 31
0.0
  0
LINE
  5
B9
330
1F
100
AcDbEntity
  8
1
  6
Continuous
 62
     7
100
AcDbLine
 10
44.36077855451499
 20
-37.8781002112805
 30
0.0
 11
-15.6392636114992
 21
-37.8781002112805
 31
0.0
  0
LINE
  5
BA
330
1F
100
AcDbEntity
  8
1
  6
Continuous
 62
     7
100
AcDbLine
 10
44.36077855451499
 20
-27.3781002112805
 30
0.0
 11
39.23136903196371
 21
-26.00367907206438
 31
0.0
  0
LINE
  5
BB
330
1F
100
AcDbEntity
  8
1
  6
Continuous
 62
     7
100
AcDbLine
 10
44.36077855451499
 20
-29.8781002112805
 30
0.0
 11
44.36077855451499
 21
-27.3781002112805
 31
0.0
  0
LINE
  5
BC
102
{ACAD_REACTORS
330
1DA
330
1DA
102
}
330
1F
100
AcDbEntity
  8
1
  6
Continuous
 62
     7
100
AcDbLine
 10
33.86077855451497
 20
-28.3781002112805
 30
0.0
 11
33.86077855451497
 21
-33.3781002112805
 31
0.0
  0
LINE
  5
BD
330
1F
100
AcDbEntity
  8
1
  6
Continuous
 62
     7
100
AcDbLine
 10
44.36077855451499
 20
-29.8781002112805
 30
0.0
 11
38.86077855451497
 21
-29.8781002112805
 31
0.0
  0
LINE
  5
BE
330
1F
100
AcDbEntity
  8
1
  6
Continuous
 62
     7
100
AcDbLine
 10
38.86077855451497
 20
-29.8781002112805
 30
0.0
 11
38.86077855451497
 21
-29.3781002112805
 31
0.0
  0
LINE
  5
BF
330
1F
100
AcDbEntity
  8
1
  6
Continuous
 62
     7
100
AcDbLine
 10
37.86077855451497
 20
-28.3781002112805
 30
0.0
 11
37.36077855451497
 21
-28.3781002112805
 31
0.0
  0
LINE
  5
C0
330
1F
100
AcDbEntity
  8
1
  6
Continuous
 62
     7
100
AcDbLine
 10
36.36077855451497
 20
-29.3781002112805
 30
0.0
 11
36.36077855451497
 21
-34.3781002112805
 31
0.0
  0
LINE
  5
C1
330
1F
100
AcDbEntity
  8
1
  6
Continuous
 62
     7
100
AcDbLine
 10
36.86077855451497
 20
-34.8781002112805
 30
0.0
 11
41.36077855451497
 21
-34.8781002112805
 31
0.0
  0
LINE
  5
C2
330
1F
100
AcDbEntity
  8
1
  6
Continuous
 62
     7
100
AcDbLine
 10
44.36077855451499
 20
-37.8781002112805
 30
0.0
 11
44.36077855451499
 21
-33.8781002112805
 31
0.0
  0
LINE
  5
C3
330
1F
100
AcDbEntity
  8
1
  6
Continuous
 62
     7
100
AcDbLine
 10
44.36077855451499
 20
-33.8781002112805
 30
0.0
 11
41.9326305477729
 21
-34.3062482180226
 31
0.0
  0
LINE
  5
C4
330
1F
100
AcDbEntity
  8
1
  6
Continuous
 62
     7
100
AcDbLine
 10
41.9326305477729
 20
-34.3062482180226
 30
0.0
 11
41.36077855451497
 21
-34.8781002112805
 31
0.0
  0
LINE
  5
C5
330
1F
100
AcDbEntity
  8
1
  6
Continuous
 62
     7
100
AcDbLine
 10
33.86077855451497
 20
-34.8781002112805
 30
0.0
 11
33.86077855451497
 21
-33.3781002112805
 31
0.0
  0
LINE
  5
C6
330
1F
100
AcDbEntity
  8
1
  6
Continuous
 62
     7
100
AcDbLine
 10
36.8607363885008
 20
18.6218997887195
 30
0.0
 11
36.8607363885008
 21
10.1218997887195
 31
0.0
  0
LINE
  5
C7
330
1F
100
AcDbEntity
  8
1
  6
Continuous
 62
     7
100
AcDbLine
 10
11.8607363885008
 20
19.1218997887195
 30
0.0
 11
11.8607363885008
 21
9.6218997887195
 31
0.0
  0
LINE
  5
C8
330
1F
100
AcDbEntity
  8
1
  6
Continuous
 62
     7
100
AcDbLine
 10
36.3607363885008
 20
19.1218997887195
 30
0.0
 11
11.8607363885008
 21
19.1218997887195
 31
0.0
  0
LINE
  5
C9
330
1F
100
AcDbEntity
  8
1
  6
Continuous
 62
     7
100
AcDbLine
 10
11.8607363885008
 20
9.6218997887195
 30
0.0
 11
36.3607363885008
 21
9.6218997887195
 31
0.0
  0
LINE
  5
CA
330
1F
100
AcDbEntity
  8
1
  6
Continuous
 62
     7
100
AcDbLine
 10
6.3607363885008
 20
22.1218997887195
 30
0.0
 11
60.3607363885008
 21
22.1218997887195
 31
0.0
  0
LINE
  5
CB
330
1F
100
AcDbEntity
  8
1
  6
Continuous
 62
     7
100
AcDbLine
 10
61.09598678859329
 20
7.1218997887195
 30
0.0
 11
63.728361588547
 21
7.1218997887195
 31
0.0
  0
LINE
  5
CC
330
1F
100
AcDbEntity
  8
1
  6
Continuous
 62
     7
100
AcDbLine
 10
58.99520775946949
 20
12.1218997887195
 30
0.0
 11
55.8607363885008
 21
12.1218997887195
 31
0.0
  0
LINE
  5
CD
330
1F
100
AcDbEntity
  8
1
  6
Continuous
 62
     7
100
AcDbLine
 10
61.8955288745609
 20
8.94329359356277
 30
0.0
 11
59.37822998102899
 21
11.94329359356277
 31
0.0
  0
LINE
  5
CE
330
1F
100
AcDbEntity
  8
1
  6
Continuous
 62
     7
100
AcDbLine
 10
61.09598678859329
 20
8.1218997887195
 30
0.0
 11
61.5125066530014
 21
8.1218997887195
 31
0.0
  0
LINE
  5
CF
330
1F
100
AcDbEntity
  8
1
  6
Continuous
 62
     7
100
AcDbLine
 10
61.09598678859329
 20
8.1218997887195
 30
0.0
 11
61.09598678859329
 21
7.1218997887195
 31
0.0
  0
LINE
  5
D0
330
1F
100
AcDbEntity
  8
1
  6
Continuous
 62
     7
100
AcDbLine
 10
55.3607363885008
 20
8.6218997887195
 30
0.0
 11
55.3607363885008
 21
11.6218997887195
 31
0.0
  0
LINE
  5
D1
330
1F
100
AcDbEntity
  8
1
  6
Continuous
 62
     7
100
AcDbLine
 10
57.3607363885008
 20
8.1218997887195
 30
0.0
 11
55.8607363885008
 21
8.1218997887195
 31
0.0
  0
LINE
  5
D2
330
1F
100
AcDbEntity
  8
1
  6
Continuous
 62
     7
100
AcDbLine
 10
57.3607363885008
 20
7.1218997887195
 30
0.0
 11
57.3607363885008
 21
8.1218997887195
 31
0.0
  0
LINE
  5
D3
330
1F
100
AcDbEntity
  8
1
  6
Continuous
 62
     7
100
AcDbLine
 10
55.8607363885008
 20
14.6218997887195
 30
0.0
 11
58.6129141040834
 21
14.6218997887195
 31
0.0
  0
LINE
  5
D4
330
1F
100
AcDbEntity
  8
1
  6
Continuous
 62
     7
100
AcDbLine
 10
52.8607363885008
 20
9.6218997887195
 30
0.0
 11
52.8607363885008
 21
11.6218997887195
 31
0.0
  0
LINE
  5
D5
330
1F
100
AcDbEntity
  8
1
  6
Continuous
 62
     7
100
AcDbLine
 10
38.8607363885008
 20
9.6218997887195
 30
0.0
 11
52.8607363885008
 21
9.6218997887195
 31
0.0
  0
LINE
  5
D6
330
1F
100
AcDbEntity
  8
1
  6
Continuous
 62
     7
100
AcDbLine
 10
58.158054843719
 20
18.75130931127076
 30
0.0
 11
59.09587701722789
 21
15.25130931127076
 31
0.0
  0
LINE
  5
D7
330
1F
100
AcDbEntity
  8
1
  6
Continuous
 62
     7
100
AcDbLine
 10
60.3607363885008
 20
22.1218997887195
 30
0.0
 11
64.21132450169159
 21
7.75130931127076
 31
0.0
  0
LINE
  5
D8
330
1F
100
AcDbEntity
  8
1
  6
Continuous
 62
     7
100
AcDbLine
 10
38.3607363885008
 20
18.6218997887195
 30
0.0
 11
38.3607363885008
 21
10.1218997887195
 31
0.0
  0
LINE
  5
D9
330
1F
100
AcDbEntity
  8
1
  6
Continuous
 62
     7
100
AcDbLine
 10
57.6750919305745
 20
19.1218997887195
 30
0.0
 11
38.8607363885008
 21
19.1218997887195
 31
0.0
  0
LINE
  5
DA
330
1F
100
AcDbEntity
  8
1
  6
Continuous
 62
     7
100
AcDbLine
 10
6.3607363885008
 20
19.71381049151812
 30
0.0
 11
6.3607363885008
 21
22.1218997887195
 31
0.0
  0
LINE
  5
DB
330
1F
100
AcDbEntity
  8
1
  6
Continuous
 62
     7
100
AcDbLine
 10
9.3607363885008
 20
18.6218997887195
 30
0.0
 11
6.3607363885008
 21
19.71381049151812
 31
0.0
  0
LINE
  5
DC
330
1F
100
AcDbEntity
  8
1
  6
Continuous
 62
     7
100
AcDbLine
 10
9.3607363885008
 20
11.1218997887195
 30
0.0
 11
9.3607363885008
 21
18.6218997887195
 31
0.0
  0
LINE
  5
DD
330
1F
100
AcDbEntity
  8
1
  6
Continuous
 62
     7
100
AcDbLine
 10
6.3607363885008
 20
10.0299890859209
 30
0.0
 11
9.3607363885008
 21
11.1218997887195
 31
0.0
  0
LINE
  5
DE
330
1F
100
AcDbEntity
  8
1
  6
Continuous
 62
     7
100
AcDbLine
 10
6.3607363885008
 20
-1.8781002112805
 30
0.0
 11
6.3607363885008
 21
10.0299890859209
 31
0.0
  0
LINE
  5
DF
330
1F
100
AcDbEntity
  8
1
  6
Continuous
 62
     7
100
AcDbLine
 10
20.8607363885008
 20
-11.58520699246705
 30
0.0
 11
20.8607363885008
 21
-8.17099343009397
 31
0.0
  0
LINE
  5
E0
330
1F
100
AcDbEntity
  8
1
  6
Continuous
 62
     7
100
AcDbLine
 10
22.21428977909407
 20
-10.23165360187377
 30
0.0
 11
20.8607363885008
 21
-11.58520699246705
 31
0.0
  0
LINE
  5
E1
330
1F
100
AcDbEntity
  8
1
  6
Continuous
 62
     7
100
AcDbLine
 10
20.8607363885008
 20
-8.17099343009397
 30
0.0
 11
22.21428977909407
 21
-9.52454682068723
 31
0.0
  0
LINE
  5
E2
330
1F
100
AcDbEntity
  8
1
  6
Continuous
 62
     7
100
AcDbLine
 10
8.8607363885008
 20
0.62189978871949
 30
0.0
 11
18.3607363885008
 21
0.62189978871949
 31
0.0
  0
LINE
  5
E3
330
1F
100
AcDbEntity
  8
1
  6
Continuous
 62
     7
100
AcDbLine
 10
20.8607363885008
 20
-1.8781002112805
 30
0.0
 11
20.8607363885008
 21
-6.04967308653433
 31
0.0
  0
LINE
  5
E4
330
1F
100
AcDbEntity
  8
1
  6
Continuous
 62
     7
100
AcDbLine
 10
23.27494995087389
 20
-8.46388664890742
 30
0.0
 11
20.8607363885008
 21
-6.04967308653433
 31
0.0
  0
LINE
  5
E5
330
1F
100
AcDbEntity
  8
1
  6
Continuous
 62
     7
100
AcDbLine
 10
18.3607363885008
 20
-9.8781002112805
 30
0.0
 11
17.8607363885008
 21
-9.3781002112805
 31
0.0
  0
LINE
  5
E6
330
1F
100
AcDbEntity
  8
1
  6
Continuous
 62
     7
100
AcDbLine
 10
17.8607363885008
 20
-9.3781002112805
 30
0.0
 11
17.8607363885008
 21
-1.8781002112805
 31
0.0
  0
LINE
  5
E7
330
1F
100
AcDbEntity
  8
1
  6
Continuous
 62
     7
100
AcDbLine
 10
17.8607363885008
 20
-1.8781002112805
 30
0.0
 11
10.3607363885008
 21
-1.8781002112805
 31
0.0
  0
LINE
  5
E8
330
1F
100
AcDbEntity
  8
1
  6
Continuous
 62
     7
100
AcDbLine
 10
10.3607363885008
 20
-1.8781002112805
 30
0.0
 11
10.3607363885008
 21
-3.8781002112805
 31
0.0
  0
LINE
  5
E9
330
1F
100
AcDbEntity
  8
1
  6
Continuous
 62
     7
100
AcDbLine
 10
10.3607363885008
 20
-3.8781002112805
 30
0.0
 11
8.3607363885008
 21
-3.8781002112805
 31
0.0
  0
LINE
  5
EA
330
1F
100
AcDbEntity
  8
1
  6
Continuous
 62
     7
100
AcDbLine
 10
8.3607363885008
 20
-3.8781002112805
 30
0.0
 11
8.3607363885008
 21
-1.8781002112805
 31
0.0
  0
LINE
  5
EB
330
1F
100
AcDbEntity
  8
1
  6
Continuous
 62
     7
100
AcDbLine
 10
8.3607363885008
 20
-1.8781002112805
 30
0.0
 11
6.3607363885008
 21
-1.8781002112805
 31
0.0
  0
LINE
  5
EC
330
1F
100
AcDbEntity
  8
1
  6
Continuous
 62
     7
100
AcDbLine
 10
7.3607363885008
 20
-24.8781002112805
 30
0.0
 11
7.3607363885008
 21
-25.6188191045317
 31
0.0
  0
LINE
  5
ED
330
1F
100
AcDbEntity
  8
1
  6
Continuous
 62
     7
100
AcDbLine
 10
8.8607363885008
 20
-20.3781002112805
 30
0.0
 11
8.8607363885008
 21
-23.3781002112805
 31
0.0
  0
LINE
  5
EE
330
1F
100
AcDbEntity
  8
1
  6
Continuous
 62
     7
100
AcDbLine
 10
18.3607363885008
 20
-20.3781002112805
 30
0.0
 11
8.8607363885008
 21
-20.3781002112805
 31
0.0
  0
LINE
  5
EF
330
1F
100
AcDbEntity
  8
1
  6
Continuous
 62
     7
100
AcDbLine
 10
20.8607363885008
 20
-13.70652733602667
 30
0.0
 11
20.8607363885008
 21
-17.8781002112805
 31
0.0
  0
LINE
  5
F0
330
1F
100
AcDbEntity
  8
1
  6
Continuous
 62
     7
100
AcDbLine
 10
20.8607363885008
 20
-13.70652733602667
 30
0.0
 11
23.27494995087389
 21
-11.29231377365359
 31
0.0
  0
LINE
  5
F1
330
1F
100
AcDbEntity
  8
1
  6
Continuous
 62
     7
100
AcDbLine
 10
17.8607363885008
 20
-10.3781002112805
 30
0.0
 11
18.3607363885008
 21
-9.8781002112805
 31
0.0
  0
LINE
  5
F2
330
1F
100
AcDbEntity
  8
1
  6
Continuous
 62
     7
100
AcDbLine
 10
17.8607363885008
 20
-17.8781002112805
 30
0.0
 11
17.8607363885008
 21
-10.3781002112805
 31
0.0
  0
LINE
  5
F3
330
1F
100
AcDbEntity
  8
1
  6
Continuous
 62
     7
100
AcDbLine
 10
10.3607363885008
 20
-17.8781002112805
 30
0.0
 11
17.8607363885008
 21
-17.8781002112805
 31
0.0
  0
LINE
  5
F4
330
1F
100
AcDbEntity
  8
1
  6
Continuous
 62
     7
100
AcDbLine
 10
10.3607363885008
 20
-15.8781002112805
 30
0.0
 11
10.3607363885008
 21
-17.8781002112805
 31
0.0
  0
LINE
  5
F5
330
1F
100
AcDbEntity
  8
1
  6
Continuous
 62
     7
100
AcDbLine
 10
8.3607363885008
 20
-15.8781002112805
 30
0.0
 11
10.3607363885008
 21
-15.8781002112805
 31
0.0
  0
LINE
  5
F6
330
1F
100
AcDbEntity
  8
1
  6
Continuous
 62
     7
100
AcDbLine
 10
8.3607363885008
 20
-17.8781002112805
 30
0.0
 11
8.3607363885008
 21
-15.8781002112805
 31
0.0
  0
LINE
  5
F7
330
1F
100
AcDbEntity
  8
1
  6
Continuous
 62
     7
100
AcDbLine
 10
6.3607363885008
 20
-17.8781002112805
 30
0.0
 11
8.3607363885008
 21
-17.8781002112805
 31
0.0
  0
LINE
  5
F8
330
1F
100
AcDbEntity
  8
1
  6
Continuous
 62
     7
100
AcDbLine
 10
5.3607363885008
 20
-22.8781002112805
 30
0.0
 11
-8.77163841145298
 21
-22.8781002112805
 31
0.0
  0
LINE
  5
F9
330
1F
100
AcDbEntity
  8
1
  6
Continuous
 62
     7
100
AcDbLine
 10
6.3607363885008
 20
-17.8781002112805
 30
0.0
 11
6.3607363885008
 21
-21.8781002112805
 31
0.0
  0
LINE
  5
FA
330
1F
100
AcDbEntity
  8
1
  6
Continuous
 62
     7
100
AcDbLine
 10
4.8607363885008
 20
-34.8781002112805
 30
0.0
 11
-0.6392636114992
 21
-34.8781002112805
 31
0.0
  0
LINE
  5
FB
330
1F
100
AcDbEntity
  8
1
  6
Continuous
 62
     7
100
AcDbLine
 10
5.8607363885008
 20
-25.3781002112805
 30
0.0
 11
5.8607363885008
 21
-25.67120025876932
 31
0.0
  0
LINE
  5
FC
330
1F
100
AcDbEntity
  8
1
  6
Continuous
 62
     7
100
AcDbLine
 10
5.8607363885008
 20
-25.3781002112805
 30
0.0
 11
-0.6392636114992
 21
-25.3781002112805
 31
0.0
  0
LINE
  5
FD
330
1F
100
AcDbEntity
  8
1
  6
Continuous
 62
     7
100
AcDbLine
 10
-13.1392636114992
 20
-34.8781002112805
 30
0.0
 11
-2.1392636114992
 21
-34.8781002112805
 31
0.0
  0
LINE
  5
FE
330
1F
100
AcDbEntity
  8
1
  6
Continuous
 62
     7
100
AcDbLine
 10
-13.1392636114992
 20
-33.33896168920429
 30
0.0
 11
-13.1392636114992
 21
-34.8781002112805
 31
0.0
  0
LINE
  5
FF
330
1F
100
AcDbEntity
  8
1
  6
Continuous
 62
     7
100
AcDbLine
 10
-15.6392636114992
 20
-22.8781002112805
 30
0.0
 11
-15.6392636114992
 21
-24.92413020788778
 31
0.0
  0
LINE
  5
100
330
1F
100
AcDbEntity
  8
1
  6
Continuous
 62
     7
100
AcDbLine
 10
-12.50688881154543
 20
-22.8781002112805
 30
0.0
 11
-15.6392636114992
 21
-22.8781002112805
 31
0.0
  0
LINE
  5
101
330
1F
100
AcDbEntity
  8
1
  6
Continuous
 62
     7
100
AcDbLine
 10
-13.30643089751305
 20
-24.69949401612377
 30
0.0
 11
-11.9686361868943
 21
-26.29381566865717
 31
0.0
  0
LINE
  5
102
330
1F
100
AcDbEntity
  8
1
  6
Continuous
 62
     7
100
AcDbLine
 10
-12.50688881154543
 20
-23.8781002112805
 30
0.0
 11
-12.92340867595355
 21
-23.8781002112805
 31
0.0
  0
LINE
  5
103
330
1F
100
AcDbEntity
  8
1
  6
Continuous
 62
     7
100
AcDbLine
 10
-12.50688881154543
 20
-23.8781002112805
 30
0.0
 11
-12.50688881154543
 21
-22.8781002112805
 31
0.0
  0
LINE
  5
104
330
1F
100
AcDbEntity
  8
1
  6
Continuous
 62
     7
100
AcDbLine
 10
-6.77163841145298
 20
-24.3781002112805
 30
0.0
 11
-6.77163841145298
 21
-26.11233250729187
 31
0.0
  0
LINE
  5
105
330
1F
100
AcDbEntity
  8
1
  6
Continuous
 62
     7
100
AcDbLine
 10
-8.77163841145298
 20
-23.8781002112805
 30
0.0
 11
-7.27163841145298
 21
-23.8781002112805
 31
0.0
  0
LINE
  5
106
330
1F
100
AcDbEntity
  8
1
  6
Continuous
 62
     7
100
AcDbLine
 10
-8.77163841145298
 20
-22.8781002112805
 30
0.0
 11
-8.77163841145298
 21
-23.8781002112805
 31
0.0
  0
LINE
  5
107
330
1F
100
AcDbEntity
  8
1
  6
Continuous
 62
     7
100
AcDbLine
 10
-4.27163841145298
 20
-25.3781002112805
 30
0.0
 11
-4.27163841145298
 21
-26.0250305835625
 31
0.0
  0
LINE
  5
108
330
1F
100
AcDbEntity
  8
1
  6
Continuous
 62
     7
100
AcDbLine
 10
-2.1392636114992
 20
-25.3781002112805
 30
0.0
 11
-4.27163841145298
 21
-25.3781002112805
 31
0.0
  0
LINE
  5
109
330
1F
100
AcDbEntity
  8
1
  6
Continuous
 62
     7
100
AcDbLine
 10
-2.1392636114992
 20
-34.8781002112805
 30
0.0
 11
-2.1392636114992
 21
-32.95483322479507
 31
0.0
  0
LINE
  5
10A
330
1F
100
AcDbEntity
  8
1
  6
Continuous
 62
     7
100
AcDbLine
 10
-0.6392636114992
 20
-34.8781002112805
 30
0.0
 11
-0.6392636114992
 21
-32.90245207055745
 31
0.0
  0
LINE
  5
10B
330
1F
100
AcDbEntity
  8
1
  6
Continuous
 62
     7
100
AcDbLine
 10
11.09598678859327
 20
26.1218997887195
 30
0.0
 11
13.72836158854703
 21
26.1218997887195
 31
0.0
  0
LINE
  5
10C
330
1F
100
AcDbEntity
  8
1
  6
Continuous
 62
     7
100
AcDbLine
 10
8.99520775946954
 20
31.1218997887195
 30
0.0
 11
5.8607363885008
 21
31.1218997887195
 31
0.0
  0
LINE
  5
10D
330
1F
100
AcDbEntity
  8
1
  6
Continuous
 62
     7
100
AcDbLine
 10
11.89552887456087
 20
27.94329359356277
 30
0.0
 11
9.37822998102902
 21
30.94329359356277
 31
0.0
  0
LINE
  5
10E
330
1F
100
AcDbEntity
  8
1
  6
Continuous
 62
     7
100
AcDbLine
 10
11.09598678859327
 20
27.1218997887195
 30
0.0
 11
11.51250665300138
 21
27.1218997887195
 31
0.0
  0
LINE
  5
10F
330
1F
100
AcDbEntity
  8
1
  6
Continuous
 62
     7
100
AcDbLine
 10
11.09598678859327
 20
27.1218997887195
 30
0.0
 11
11.09598678859327
 21
26.1218997887195
 31
0.0
  0
LINE
  5
110
330
1F
100
AcDbEntity
  8
1
  6
Continuous
 62
     7
100
AcDbLine
 10
5.3607363885008
 20
27.6218997887195
 30
0.0
 11
5.3607363885008
 21
30.6218997887195
 31
0.0
  0
LINE
  5
111
330
1F
100
AcDbEntity
  8
1
  6
Continuous
 62
     7
100
AcDbLine
 10
7.3607363885008
 20
27.1218997887195
 30
0.0
 11
5.8607363885008
 21
27.1218997887195
 31
0.0
  0
LINE
  5
112
330
1F
100
AcDbEntity
  8
1
  6
Continuous
 62
     7
100
AcDbLine
 10
7.3607363885008
 20
26.1218997887195
 30
0.0
 11
7.3607363885008
 21
27.1218997887195
 31
0.0
  0
LINE
  5
113
330
1F
100
AcDbEntity
  8
1
  6
Continuous
 62
     7
100
AcDbLine
 10
5.8607363885008
 20
33.6218997887195
 30
0.0
 11
8.61291410408337
 21
33.6218997887195
 31
0.0
  0
LINE
  5
114
330
1F
100
AcDbEntity
  8
1
  6
Continuous
 62
     7
100
AcDbLine
 10
2.8607363885008
 20
28.6218997887195
 30
0.0
 11
2.8607363885008
 21
30.6218997887195
 31
0.0
  0
LINE
  5
115
330
1F
100
AcDbEntity
  8
1
  6
Continuous
 62
     7
100
AcDbLine
 10
-6.1392636114992
 20
28.6218997887195
 30
0.0
 11
2.8607363885008
 21
28.6218997887195
 31
0.0
  0
LINE
  5
116
330
1F
100
AcDbEntity
  8
1
  6
Continuous
 62
     7
100
AcDbLine
 10
8.15805484371899
 20
37.7513093112708
 30
0.0
 11
9.09587701722791
 21
34.25130931127076
 31
0.0
  0
LINE
  5
117
330
1F
100
AcDbEntity
  8
1
  6
Continuous
 62
     7
100
AcDbLine
 10
10.3607363885008
 20
41.1218997887195
 30
0.0
 11
14.21132450169156
 21
26.75130931127076
 31
0.0
  0
LINE
  5
118
330
1F
100
AcDbEntity
  8
1
  6
Continuous
 62
     7
100
AcDbLine
 10
-6.1392636114992
 20
37.6218997887195
 30
0.0
 11
-6.1392636114992
 21
28.6218997887195
 31
0.0
  0
LINE
  5
119
330
1F
100
AcDbEntity
  8
1
  6
Continuous
 62
     7
100
AcDbLine
 10
7.67509193057445
 20
38.1218997887195
 30
0.0
 11
-5.6392636114992
 21
38.1218997887195
 31
0.0
  0
LINE
  5
11A
330
1F
100
AcDbEntity
  8
1
  6
Continuous
 62
     7
100
AcDbLine
 10
-10.02949138285276
 20
28.6218997887195
 30
0.0
 11
-7.1392636114992
 21
28.6218997887195
 31
0.0
  0
LINE
  5
11B
330
1F
100
AcDbEntity
  8
1
  6
Continuous
 62
     7
100
AcDbLine
 10
-26.6392636114992
 20
26.1218997887195
 30
0.0
 11
-14.6392636114992
 21
26.1218997887195
 31
0.0
  0
LINE
  5
11C
330
1F
100
AcDbEntity
  8
1
  6
Continuous
 62
     7
100
AcDbLine
 10
-54.6392636114992
 20
41.1218997887195
 30
0.0
 11
10.3607363885008
 21
41.1218997887195
 31
0.0
  0
LINE
  5
11D
330
1F
100
AcDbEntity
  8
1
  6
Continuous
 62
     7
100
AcDbLine
 10
-10.04332083059706
 20
26.1218997887195
 30
0.0
 11
7.3607363885008
 21
26.1218997887195
 31
0.0
  0
LINE
  5
11E
330
1F
100
AcDbEntity
  8
1
  6
Continuous
 62
     7
100
AcDbLine
 10
-7.1392636114992
 20
37.6218997887195
 30
0.0
 11
-7.1392636114992
 21
28.6218997887195
 31
0.0
  0
LINE
  5
11F
330
1F
100
AcDbEntity
  8
1
  6
Continuous
 62
     7
100
AcDbLine
 10
-26.6392636114992
 20
38.1218997887195
 30
0.0
 11
-7.6392636114992
 21
38.1218997887195
 31
0.0
  0
LINE
  5
120
330
1F
100
AcDbEntity
  8
1
  6
Continuous
 62
     7
100
AcDbLine
 10
-27.1392636114992
 20
26.6218997887195
 30
0.0
 11
-27.1392636114992
 21
37.6218997887195
 31
0.0
  0
LINE
  5
121
330
1F
100
AcDbEntity
  8
1
  6
Continuous
 62
     7
100
AcDbLine
 10
-11.1392636114992
 20
15.6209040137658
 30
0.0
 11
-12.94109830946427
 21
22.34544265341194
 31
0.0
  0
LINE
  5
122
330
1F
100
AcDbEntity
  8
1
  6
Continuous
 62
     7
100
AcDbLine
 10
-11.1392636114992
 20
-6.90437965290932
 30
0.0
 11
-11.1392636114992
 21
15.6209040137658
 31
0.0
  0
LINE
  5
123
330
1F
100
AcDbEntity
  8
1
  6
Continuous
 62
     7
100
AcDbLine
 10
-5.6392636114992
 20
-8.3781002112805
 30
0.0
 11
-11.1392636114992
 21
-6.90437965290932
 31
0.0
  0
LINE
  5
124
330
1F
100
AcDbEntity
  8
1
  6
Continuous
 62
     7
100
AcDbLine
 10
-5.6392636114992
 20
-10.8781002112805
 30
0.0
 11
-5.6392636114992
 21
-8.3781002112805
 31
0.0
  0
LINE
  5
125
330
1F
100
AcDbEntity
  8
1
  6
Continuous
 62
     7
100
AcDbLine
 10
-13.6392636114992
 20
1.2917727697973
 30
0.0
 11
-13.6392636114992
 21
15.29177276979731
 31
0.0
  0
LINE
  5
126
330
1F
100
AcDbEntity
  8
1
  6
Continuous
 62
     7
100
AcDbLine
 10
-16.1392636114992
 20
0.6218997887195
 30
0.0
 11
-13.6392636114992
 21
1.2917727697973
 31
0.0
  0
LINE
  5
127
330
1F
100
AcDbEntity
  8
1
  6
Continuous
 62
     7
100
AcDbLine
 10
-16.1392636114992
 20
-0.8781002112805
 30
0.0
 11
-16.1392636114992
 21
0.6218997887195
 31
0.0
  0
LINE
  5
128
330
1F
100
AcDbEntity
  8
1
  6
Continuous
 62
     7
100
AcDbLine
 10
-13.6392636114992
 20
-0.8781002112805
 30
0.0
 11
-16.1392636114992
 21
-0.8781002112805
 31
0.0
  0
LINE
  5
129
330
1F
100
AcDbEntity
  8
1
  6
Continuous
 62
     7
100
AcDbLine
 10
-13.6392636114992
 20
-2.8781002112805
 30
0.0
 11
-13.6392636114992
 21
-0.8781002112805
 31
0.0
  0
LINE
  5
12A
330
1F
100
AcDbEntity
  8
1
  6
Continuous
 62
     7
100
AcDbLine
 10
-16.1392636114992
 20
-2.8781002112805
 30
0.0
 11
-13.6392636114992
 21
-2.8781002112805
 31
0.0
  0
LINE
  5
12B
330
1F
100
AcDbEntity
  8
1
  6
Continuous
 62
     7
100
AcDbLine
 10
-16.1392636114992
 20
-4.3781002112805
 30
0.0
 11
-16.1392636114992
 21
-2.8781002112805
 31
0.0
  0
LINE
  5
12C
330
1F
100
AcDbEntity
  8
1
  6
Continuous
 62
     7
100
AcDbLine
 10
-13.6392636114992
 20
-5.04797319235831
 30
0.0
 11
-16.1392636114992
 21
-4.3781002112805
 31
0.0
  0
LINE
  5
12D
330
1F
100
AcDbEntity
  8
1
  6
Continuous
 62
     7
100
AcDbLine
 10
-13.6392636114992
 20
-6.8781002112805
 30
0.0
 11
-13.6392636114992
 21
-5.04797319235831
 31
0.0
  0
LINE
  5
12E
330
1F
100
AcDbEntity
  8
1
  6
Continuous
 62
     7
100
AcDbLine
 10
-16.1392636114992
 20
-10.3781002112805
 30
0.0
 11
-16.1392636114992
 21
-9.8781002112805
 31
0.0
  0
LINE
  5
12F
330
1F
100
AcDbEntity
  8
1
  6
Continuous
 62
     7
100
AcDbLine
 10
-37.1392636114992
 20
-10.3781002112805
 30
0.0
 11
-16.1392636114992
 21
-10.3781002112805
 31
0.0
  0
LINE
  5
130
330
1F
100
AcDbEntity
  8
1
  6
Continuous
 62
     7
100
AcDbLine
 10
-16.1392636114992
 20
24.6218997887195
 30
0.0
 11
-13.6392636114992
 21
15.29177276979731
 31
0.0
  0
LINE
  5
131
330
1F
100
AcDbEntity
  8
1
  6
Continuous
 62
     7
100
AcDbLine
 10
-37.1392636114992
 20
24.6218997887195
 30
0.0
 11
-16.1392636114992
 21
24.6218997887195
 31
0.0
  0
LINE
  5
132
330
1F
100
AcDbEntity
  8
1
  6
Continuous
 62
     7
100
AcDbLine
 10
-37.1392636114992
 20
-10.3781002112805
 30
0.0
 11
-37.1392636114992
 21
-8.8781002112805
 31
0.0
  0
LINE
  5
133
330
1F
100
AcDbEntity
  8
1
  6
Continuous
 62
     7
100
AcDbLine
 10
-37.1392636114992
 20
37.6218997887195
 30
0.0
 11
-37.1392636114992
 21
26.6218997887195
 31
0.0
  0
LINE
  5
134
330
1F
100
AcDbEntity
  8
1
  6
Continuous
 62
     7
100
AcDbLine
 10
-29.1392636114992
 20
38.1218997887195
 30
0.0
 11
-36.6392636114992
 21
38.1218997887195
 31
0.0
  0
LINE
  5
135
330
1F
100
AcDbEntity
  8
1
  6
Continuous
 62
     7
100
AcDbLine
 10
-28.6392636114992
 20
26.6218997887195
 30
0.0
 11
-28.6392636114992
 21
37.6218997887195
 31
0.0
  0
LINE
  5
136
330
1F
100
AcDbEntity
  8
1
  6
Continuous
 62
     7
100
AcDbLine
 10
-36.6392636114992
 20
26.1218997887195
 30
0.0
 11
-29.1392636114992
 21
26.1218997887195
 31
0.0
  0
LINE
  5
137
330
1F
100
AcDbEntity
  8
1
  6
Continuous
 62
     7
100
AcDbLine
 10
-39.6392636114992
 20
30.6218997887195
 30
0.0
 11
-39.6392636114992
 21
-8.3781002112805
 31
0.0
  0
LINE
  5
138
330
1F
100
AcDbEntity
  8
1
  6
Continuous
 62
     7
100
AcDbLine
 10
-39.6392636114992
 20
30.6218997887195
 30
0.0
 11
-41.6392636114992
 21
30.6218997887195
 31
0.0
  0
LINE
  5
139
330
1F
100
AcDbEntity
  8
1
  6
Continuous
 62
     7
100
AcDbLine
 10
-41.6392636114992
 20
30.6218997887195
 30
0.0
 11
-41.6392636114992
 21
28.6218997887195
 31
0.0
  0
LINE
  5
13A
330
1F
100
AcDbEntity
  8
1
  6
Continuous
 62
     7
100
AcDbLine
 10
-41.6392636114992
 20
28.6218997887195
 30
0.0
 11
-42.90721280393032
 21
28.6218997887195
 31
0.0
  0
LINE
  5
13B
330
1F
100
AcDbEntity
  8
1
  6
Continuous
 62
     7
100
AcDbLine
 10
-42.90721280393032
 20
28.6218997887195
 30
0.0
 11
-44.6392636114992
 21
29.6218997887195
 31
0.0
  0
LINE
  5
13C
330
1F
100
AcDbEntity
  8
1
  6
Continuous
 62
     7
100
AcDbLine
 10
-44.6392636114992
 20
29.6218997887195
 30
0.0
 11
-50.1392636114992
 21
29.6218997887195
 31
0.0
  0
LINE
  5
13D
330
1F
100
AcDbEntity
  8
1
  6
Continuous
 62
     7
100
AcDbLine
 10
-50.1392636114992
 20
29.6218997887195
 30
0.0
 11
-50.1392636114992
 21
30.1218997887195
 31
0.0
  0
LINE
  5
13E
330
1F
100
AcDbEntity
  8
1
  6
Continuous
 62
     7
100
AcDbLine
 10
-50.1392636114992
 20
30.1218997887195
 30
0.0
 11
-54.6392636114992
 21
30.1218997887195
 31
0.0
  0
LINE
  5
13F
330
1F
100
AcDbEntity
  8
1
  6
Continuous
 62
     7
100
AcDbLine
 10
-54.6392636114992
 20
30.1218997887195
 30
0.0
 11
-54.6392636114992
 21
33.1218997887195
 31
0.0
  0
LINE
  5
140
330
1F
100
AcDbEntity
  8
1
  6
Continuous
 62
     7
100
AcDbLine
 10
-54.6392636114992
 20
33.1218997887195
 30
0.0
 11
-49.1392636114992
 21
33.1218997887195
 31
0.0
  0
LINE
  5
141
330
1F
100
AcDbEntity
  8
1
  6
Continuous
 62
     7
100
AcDbLine
 10
-49.1392636114992
 20
33.1218997887195
 30
0.0
 11
-49.1392636114992
 21
32.6218997887195
 31
0.0
  0
LINE
  5
142
330
1F
100
AcDbEntity
  8
1
  6
Continuous
 62
     7
100
AcDbLine
 10
-48.1392636114992
 20
31.6218997887195
 30
0.0
 11
-47.6392636114992
 21
31.6218997887195
 31
0.0
  0
LINE
  5
143
330
1F
100
AcDbEntity
  8
1
  6
Continuous
 62
     7
100
AcDbLine
 10
-46.6392636114992
 20
32.6218997887195
 30
0.0
 11
-46.6392636114992
 21
37.6218997887195
 31
0.0
  0
LINE
  5
144
330
1F
100
AcDbEntity
  8
1
  6
Continuous
 62
     7
100
AcDbLine
 10
-47.1392636114992
 20
38.1218997887195
 30
0.0
 11
-51.6392636114992
 21
38.1218997887195
 31
0.0
  0
LINE
  5
145
330
1F
100
AcDbEntity
  8
1
  6
Continuous
 62
     7
100
AcDbLine
 10
-54.6392636114992
 20
41.1218997887195
 30
0.0
 11
-54.6392636114992
 21
37.1218997887195
 31
0.0
  0
LINE
  5
146
330
1F
100
AcDbEntity
  8
1
  6
Continuous
 62
     7
100
AcDbLine
 10
-54.6392636114992
 20
37.1218997887195
 30
0.0
 11
-52.21111560475709
 21
37.55004779546161
 31
0.0
  0
LINE
  5
147
330
1F
100
AcDbEntity
  8
1
  6
Continuous
 62
     7
100
AcDbLine
 10
-52.21111560475709
 20
37.55004779546161
 30
0.0
 11
-51.6392636114992
 21
38.1218997887195
 31
0.0
  0
LINE
  5
148
330
1F
100
AcDbEntity
  8
1
  6
Continuous
 62
     7
100
AcDbLine
 10
-44.1392636114992
 20
37.6218997887195
 30
0.0
 11
-44.1392636114992
 21
33.6218997887195
 31
0.0
  0
LINE
  5
149
330
1F
100
AcDbEntity
  8
1
  6
Continuous
 62
     7
100
AcDbLine
 10
-43.6392636114992
 20
33.1218997887195
 30
0.0
 11
-39.1392636114992
 21
33.1218997887195
 31
0.0
  0
LINE
  5
14A
330
1F
100
AcDbEntity
  8
1
  6
Continuous
 62
     7
100
AcDbLine
 10
-38.6392636114992
 20
33.6218997887195
 30
0.0
 11
-38.6392636114992
 21
37.6218997887195
 31
0.0
  0
LINE
  5
14B
330
1F
100
AcDbEntity
  8
1
  6
Continuous
 62
     7
100
AcDbLine
 10
-39.1392636114992
 20
38.1218997887195
 30
0.0
 11
-43.6392636114992
 21
38.1218997887195
 31
0.0
  0
LINE
  5
14C
330
1F
100
AcDbEntity
  8
1
  6
Continuous
 62
     7
100
AcDbLine
 10
-41.6392636114992
 20
-8.3781002112805
 30
0.0
 11
-39.6392636114992
 21
-8.3781002112805
 31
0.0
  0
LINE
  5
14D
330
1F
100
AcDbEntity
  8
1
  6
Continuous
 62
     7
100
AcDbLine
 10
-41.6392636114992
 20
-6.3781002112805
 30
0.0
 11
-41.6392636114992
 21
-8.3781002112805
 31
0.0
  0
LINE
  5
14E
330
1F
100
AcDbEntity
  8
1
  6
Continuous
 62
     7
100
AcDbLine
 10
-42.90721280393032
 20
-6.3781002112805
 30
0.0
 11
-41.6392636114992
 21
-6.3781002112805
 31
0.0
  0
LINE
  5
14F
330
1F
100
AcDbEntity
  8
1
  6
Continuous
 62
     7
100
AcDbLine
 10
-44.6392636114992
 20
-7.3781002112805
 30
0.0
 11
-42.90721280393032
 21
-6.3781002112805
 31
0.0
  0
LINE
  5
150
330
1F
100
AcDbEntity
  8
1
  6
Continuous
 62
     7
100
AcDbLine
 10
-49.6392636114992
 20
-7.3781002112805
 30
0.0
 11
-44.6392636114992
 21
-7.3781002112805
 31
0.0
  0
LINE
  5
151
330
1F
100
AcDbEntity
  8
1
  6
Continuous
 62
     7
100
AcDbLine
 10
-54.6392636114992
 20
-7.8781002112805
 30
0.0
 11
-50.1392636114992
 21
-7.8781002112805
 31
0.0
  0
LINE
  5
152
330
1F
100
AcDbEntity
  8
1
  6
Continuous
 62
     7
100
AcDbLine
 10
-54.6392636114992
 20
-10.8781002112805
 30
0.0
 11
-54.6392636114992
 21
-7.8781002112805
 31
0.0
  0
LINE
  5
153
330
1F
100
AcDbEntity
  8
1
  6
Continuous
 62
     7
100
AcDbLine
 10
-5.6392636114992
 20
-10.8781002112805
 30
0.0
 11
-11.1392636114992
 21
-10.8781002112805
 31
0.0
  0
LINE
  5
154
330
1F
100
AcDbEntity
  8
1
  6
Continuous
 62
     7
100
AcDbLine
 10
-11.1392636114992
 20
-10.8781002112805
 30
0.0
 11
-11.1392636114992
 21
-10.3781002112805
 31
0.0
  0
LINE
  5
155
330
1F
100
AcDbEntity
  8
1
  6
Continuous
 62
     7
100
AcDbLine
 10
-12.1392636114992
 20
-9.3781002112805
 30
0.0
 11
-12.6392636114992
 21
-9.3781002112805
 31
0.0
  0
LINE
  5
156
330
1F
100
AcDbEntity
  8
1
  6
Continuous
 62
     7
100
AcDbLine
 10
-13.6392636114992
 20
-10.3781002112805
 30
0.0
 11
-13.6392636114992
 21
-15.3781002112805
 31
0.0
  0
LINE
  5
157
330
1F
100
AcDbEntity
  8
1
  6
Continuous
 62
     7
100
AcDbLine
 10
-13.1392636114992
 20
-15.8781002112805
 30
0.0
 11
-8.6392636114992
 21
-15.8781002112805
 31
0.0
  0
LINE
  5
158
330
1F
100
AcDbEntity
  8
1
  6
Continuous
 62
     7
100
AcDbLine
 10
-5.6392636114992
 20
-18.8781002112805
 30
0.0
 11
-5.6392636114992
 21
-14.8781002112805
 31
0.0
  0
LINE
  5
159
330
1F
100
AcDbEntity
  8
1
  6
Continuous
 62
     7
100
AcDbLine
 10
-5.6392636114992
 20
-14.8781002112805
 30
0.0
 11
-8.06741161824132
 21
-15.30624821802261
 31
0.0
  0
LINE
  5
15A
330
1F
100
AcDbEntity
  8
1
  6
Continuous
 62
     7
100
AcDbLine
 10
-8.06741161824132
 20
-15.30624821802261
 30
0.0
 11
-8.6392636114992
 21
-15.8781002112805
 31
0.0
  0
LINE
  5
15B
330
1F
100
AcDbEntity
  8
1
  6
Continuous
 62
     7
100
AcDbLine
 10
-49.1392636114992
 20
-10.8781002112805
 30
0.0
 11
-54.6392636114992
 21
-10.8781002112805
 31
0.0
  0
LINE
  5
15C
330
1F
100
AcDbEntity
  8
1
  6
Continuous
 62
     7
100
AcDbLine
 10
-49.1392636114992
 20
-10.3781002112805
 30
0.0
 11
-49.1392636114992
 21
-10.8781002112805
 31
0.0
  0
LINE
  5
15D
330
1F
100
AcDbEntity
  8
1
  6
Continuous
 62
     7
100
AcDbLine
 10
-47.6392636114992
 20
-9.3781002112805
 30
0.0
 11
-48.1392636114992
 21
-9.3781002112805
 31
0.0
  0
LINE
  5
15E
330
1F
100
AcDbEntity
  8
1
  6
Continuous
 62
     7
100
AcDbLine
 10
-46.6392636114992
 20
-15.3781002112805
 30
0.0
 11
-46.6392636114992
 21
-10.3781002112805
 31
0.0
  0
LINE
  5
15F
330
1F
100
AcDbEntity
  8
1
  6
Continuous
 62
     7
100
AcDbLine
 10
-51.6392636114992
 20
-15.8781002112805
 30
0.0
 11
-47.1392636114992
 21
-15.8781002112805
 31
0.0
  0
LINE
  5
160
330
1F
100
AcDbEntity
  8
1
  6
Continuous
 62
     7
100
AcDbLine
 10
-54.6392636114992
 20
-14.8781002112805
 30
0.0
 11
-54.6392636114992
 21
-18.8781002112805
 31
0.0
  0
LINE
  5
161
330
1F
100
AcDbEntity
  8
1
  6
Continuous
 62
     7
100
AcDbLine
 10
-52.21111560475709
 20
-15.30624821802261
 30
0.0
 11
-54.6392636114992
 21
-14.8781002112805
 31
0.0
  0
LINE
  5
162
330
1F
100
AcDbEntity
  8
1
  6
Continuous
 62
     7
100
AcDbLine
 10
-51.6392636114992
 20
-15.8781002112805
 30
0.0
 11
-52.21111560475709
 21
-15.30624821802261
 31
0.0
  0
LINE
  5
163
330
1F
100
AcDbEntity
  8
1
  6
Continuous
 62
     7
100
AcDbLine
 10
-23.1392636114992
 20
-11.8781002112805
 30
0.0
 11
-23.1392636114992
 21
-15.3781002112805
 31
0.0
  0
LINE
  5
164
330
1F
100
AcDbEntity
  8
1
  6
Continuous
 62
     7
100
AcDbLine
 10
-16.6392636114992
 20
-11.8781002112805
 30
0.0
 11
-23.1392636114992
 21
-11.8781002112805
 31
0.0
  0
LINE
  5
165
330
1F
100
AcDbEntity
  8
1
  6
Continuous
 62
     7
100
AcDbLine
 10
-16.1392636114992
 20
-15.3781002112805
 30
0.0
 11
-16.1392636114992
 21
-12.3781002112805
 31
0.0
  0
LINE
  5
166
330
1F
100
AcDbEntity
  8
1
  6
Continuous
 62
     7
100
AcDbLine
 10
-22.6392636114992
 20
-15.8781002112805
 30
0.0
 11
-16.6392636114992
 21
-15.8781002112805
 31
0.0
  0
LINE
  5
167
330
1F
100
AcDbEntity
  8
1
  6
Continuous
 62
     7
100
AcDbLine
 10
-30.6392636114992
 20
-12.3781002112805
 30
0.0
 11
-30.6392636114992
 21
-15.3781002112805
 31
0.0
  0
LINE
  5
168
330
1F
100
AcDbEntity
  8
1
  6
Continuous
 62
     7
100
AcDbLine
 10
-25.1392636114992
 20
-11.8781002112805
 30
0.0
 11
-30.1392636114992
 21
-11.8781002112805
 31
0.0
  0
LINE
  5
169
330
1F
100
AcDbEntity
  8
1
  6
Continuous
 62
     7
100
AcDbLine
 10
-24.6392636114992
 20
-15.3781002112805
 30
0.0
 11
-24.6392636114992
 21
-12.3781002112805
 31
0.0
  0
LINE
  5
16A
330
1F
100
AcDbEntity
  8
1
  6
Continuous
 62
     7
100
AcDbLine
 10
-30.1392636114992
 20
-15.8781002112805
 30
0.0
 11
-25.1392636114992
 21
-15.8781002112805
 31
0.0
  0
LINE
  5
16B
330
1F
100
AcDbEntity
  8
1
  6
Continuous
 62
     7
100
AcDbLine
 10
-37.1392636114992
 20
-12.3781002112805
 30
0.0
 11
-37.1392636114992
 21
-15.3781002112805
 31
0.0
  0
LINE
  5
16C
330
1F
100
AcDbEntity
  8
1
  6
Continuous
 62
     7
100
AcDbLine
 10
-32.6392636114992
 20
-11.8781002112805
 30
0.0
 11
-36.6392636114992
 21
-11.8781002112805
 31
0.0
  0
LINE
  5
16D
330
1F
100
AcDbEntity
  8
1
  6
Continuous
 62
     7
100
AcDbLine
 10
-32.1392636114992
 20
-15.3781002112805
 30
0.0
 11
-32.1392636114992
 21
-12.3781002112805
 31
0.0
  0
LINE
  5
16E
330
1F
100
AcDbEntity
  8
1
  6
Continuous
 62
     7
100
AcDbLine
 10
-36.6392636114992
 20
-15.8781002112805
 30
0.0
 11
-32.6392636114992
 21
-15.8781002112805
 31
0.0
  0
LINE
  5
16F
330
1F
100
AcDbEntity
  8
1
  6
Continuous
 62
     7
100
AcDbLine
 10
-44.1392636114992
 20
-11.3781002112805
 30
0.0
 11
-44.1392636114992
 21
-15.3781002112805
 31
0.0
  0
LINE
  5
170
330
1F
100
AcDbEntity
  8
1
  6
Continuous
 62
     7
100
AcDbLine
 10
-39.1392636114992
 20
-10.8781002112805
 30
0.0
 11
-43.6392636114992
 21
-10.8781002112805
 31
0.0
  0
LINE
  5
171
330
1F
100
AcDbEntity
  8
1
  6
Continuous
 62
     7
100
AcDbLine
 10
-38.6392636114992
 20
-15.3781002112805
 30
0.0
 11
-38.6392636114992
 21
-11.3781002112805
 31
0.0
  0
LINE
  5
172
330
1F
100
AcDbEntity
  8
1
  6
Continuous
 62
     7
100
AcDbLine
 10
-43.6392636114992
 20
-15.8781002112805
 30
0.0
 11
-39.1392636114992
 21
-15.8781002112805
 31
0.0
  0
LINE
  5
173
330
1F
100
AcDbEntity
  8
1
  6
Continuous
 62
     7
100
AcDbLine
 10
-34.6392636114992
 20
-21.3781002112805
 30
0.0
 11
-28.6392636114992
 21
-21.3781002112805
 31
0.0
  0
LINE
  5
174
330
1F
100
AcDbEntity
  8
1
  6
Continuous
 62
     7
100
AcDbLine
 10
-32.1392636114992
 20
-22.8781002112805
 30
0.0
 11
-28.6392636114992
 21
-22.8781002112805
 31
0.0
  0
LINE
  5
175
330
1F
100
AcDbEntity
  8
1
  6
Continuous
 62
     7
100
AcDbLine
 10
-25.3892636114992
 20
-18.8781002112805
 30
0.0
 11
-36.6392636114992
 21
-18.8781002112805
 31
0.0
  0
LINE
  5
176
330
1F
100
AcDbEntity
  8
1
  6
Continuous
 62
     7
100
AcDbLine
 10
-54.6392636114992
 20
-18.8781002112805
 30
0.0
 11
-36.6392636114992
 21
-18.8781002112805
 31
0.0
  0
LINE
  5
177
330
1F
100
AcDbEntity
  8
1
  6
Continuous
 62
     7
100
AcDbLine
 10
-18.6392636114992
 20
-18.8781002112805
 30
0.0
 11
-5.6392636114992
 21
-18.8781002112805
 31
0.0
  0
LINE
  5
178
102
{ACAD_REACTORS
330
1DA
330
1DA
102
}
330
1F
100
AcDbEntity
  8
1
  6
Continuous
 62
     7
100
AcDbLine
 10
23.90030758847249
 20
-33.3781002112805
 30
0.0
 11
23.90030758847249
 21
-34.3781002112805
 31
0.0
  0
ARC
  5
179
330
1F
100
AcDbEntity
  8
1
  6
Continuous
 62
     7
100
AcDbCircle
 10
-28.6392636114992
 20
-30.3781002112805
 30
0.0
 40
7.499999999999997
100
AcDbArc
 50
-25.8181392846539
 51
-21.57817847820189
  0
ARC
  5
17A
330
1F
100
AcDbEntity
  8
1
  6
Continuous
 62
     7
100
AcDbCircle
 10
-28.6392636114992
 20
-30.3781002112805
 30
0.0
 40
7.499999999999993
100
AcDbArc
 50
-21.57817847820189
 51
25.57817847820188
  0
ARC
  5
17B
330
1F
100
AcDbEntity
  8
1
  6
Continuous
 62
     7
100
AcDbCircle
 10
-28.6392636114992
 20
-30.3781002112805
 30
0.0
 40
7.500000000000004
100
AcDbArc
 50
138.8904929662487
 51
-25.8181392846539
  0
ARC
  5
17C
330
1F
100
AcDbEntity
  8
1
  6
Continuous
 62
     7
100
AcDbCircle
 10
-28.6392636114992
 20
-30.3781002112805
 30
0.0
 40
7.499999999999998
100
AcDbArc
 50
25.57817847820188
 51
29.81813928465401
  0
ARC
  5
17D
102
{ACAD_REACTORS
330
1DA
330
1DA
102
}
330
1F
100
AcDbEntity
  8
1
  6
Continuous
 62
     7
100
AcDbCircle
 10
32.86077855451497
 20
6.62189978871949
 30
0.0
 40
1.0
100
AcDbArc
 50
0.0
 51
90.0
  0
ARC
  5
17E
102
{ACAD_REACTORS
330
1DA
330
1DA
102
}
330
1F
100
AcDbEntity
  8
1
  6
Continuous
 62
     7
100
AcDbCircle
 10
35.36077855451497
 20
-2.3781002112805
 30
0.0
 40
1.0
100
AcDbArc
 50
0.0
 51
90.0
  0
ARC
  5
17F
102
{ACAD_REACTORS
330
1DA
330
1DA
102
}
330
1F
100
AcDbEntity
  8
1
  6
Continuous
 62
     7
100
AcDbCircle
 10
35.36077855451497
 20
-24.3781002112805
 30
0.0
 40
1.0
100
AcDbArc
 50
-90.0
 51
0.0
  0
ARC
  5
180
102
{ACAD_REACTORS
330
1DA
330
1DA
102
}
330
1F
100
AcDbEntity
  8
1
  6
Continuous
 62
     7
100
AcDbCircle
 10
32.86077855451497
 20
-33.3781002112805
 30
0.0
 40
1.0
100
AcDbArc
 50
-90.0
 51
0.0
  0
ARC
  5
181
102
{ACAD_REACTORS
330
1D9
330
1D9
102
}
330
1F
100
AcDbEntity
  8
1
  6
Continuous
 62
     7
100
AcDbCircle
 10
-36.1392636114992
 20
23.1218997887195
 30
0.0
 40
1.0
100
AcDbArc
 50
90.0
 51
180.0
  0
ARC
  5
182
102
{ACAD_REACTORS
330
1D9
330
1D9
102
}
330
1F
100
AcDbEntity
  8
1
  6
Continuous
 62
     7
100
AcDbCircle
 10
-36.1392636114992
 20
-8.8781002112805
 30
0.0
 40
1.0
100
AcDbArc
 50
180.0
 51
-90.0
  0
ARC
  5
183
330
1F
100
AcDbEntity
  8
1
  6
Continuous
 62
     7
100
AcDbCircle
 10
-28.6392636114992
 20
-30.3781002112805
 30
0.0
 40
7.49999999999999
100
AcDbArc
 50
29.81813928465401
 51
54.67412086747489
  0
ARC
  5
184
330
1F
100
AcDbEntity
  8
1
  6
Continuous
 62
     7
100
AcDbCircle
 10
-28.6392636114992
 20
-30.3781002112805
 30
0.0
 40
7.500000000000006
100
AcDbArc
 50
54.67412086747489
 51
138.8904929662487
  0
ARC
  5
185
330
1F
100
AcDbEntity
  8
1
  6
Continuous
 62
     7
100
AcDbCircle
 10
21.8607363885008
 20
-9.8781002112805
 30
0.0
 40
2.0
100
AcDbArc
 50
0.0
 51
44.99999999999979
  0
ARC
  5
186
330
1F
100
AcDbEntity
  8
1
  6
Continuous
 62
     7
100
AcDbCircle
 10
21.8607363885008
 20
-9.8781002112805
 30
0.0
 40
1.999999999999994
100
AcDbArc
 50
-45.00000000000008
 51
0.0
  0
ARC
  5
187
330
1F
100
AcDbEntity
  8
1
  6
Continuous
 62
     7
100
AcDbCircle
 10
-10.04332083059706
 20
23.1218997887195
 30
0.0
 40
5.500017386665692
100
AcDbArc
 50
89.85593321475432
 51
146.865520892145
  0
CIRCLE
  5
188
330
1F
100
AcDbEntity
  8
1
  6
Continuous
 62
     7
100
AcDbCircle
 10
-28.6392636114992
 20
-30.3781002112805
 30
0.0
 40
4.999999999999858
  0
ARC
  5
189
102
{ACAD_REACTORS
330
1DA
330
1DA
102
}
330
1F
100
AcDbEntity
  8
1
  6
Continuous
 62
     7
100
AcDbCircle
 10
9.86077855451497
 20
6.62189978871949
 30
0.0
 40
1.0
100
AcDbArc
 50
90.0
 51
180.0
  0
ARC
  5
18A
102
{ACAD_REACTORS
330
1DA
330
1DA
102
}
330
1F
100
AcDbEntity
  8
1
  6
Continuous
 62
     7
100
AcDbCircle
 10
33.86077855451497
 20
-1.37810021128051
 30
0.0
 40
1.0
100
AcDbArc
 50
180.0
 51
-90.0
  0
ARC
  5
18B
102
{ACAD_REACTORS
330
1DA
330
1DA
102
}
330
1F
100
AcDbEntity
  8
1
  6
Continuous
 62
     7
100
AcDbCircle
 10
33.86077855451497
 20
-25.3781002112805
 30
0.0
 40
1.0
100
AcDbArc
 50
90.0
 51
180.0
  0
ARC
  5
18C
330
1F
100
AcDbEntity
  8
1
  6
Continuous
 62
     7
100
AcDbCircle
 10
-13.1392636114992
 20
-15.3781002112805
 30
0.0
 40
0.5
100
AcDbArc
 50
180.0
 51
-90.0
  0
ARC
  5
18D
330
1F
100
AcDbEntity
  8
1
  6
Continuous
 62
     7
100
AcDbCircle
 10
-47.1392636114992
 20
-15.3781002112805
 30
0.0
 40
0.5
100
AcDbArc
 50
-90.0
 51
0.0
  0
ARC
  5
18E
330
1F
100
AcDbEntity
  8
1
  6
Continuous
 62
     7
100
AcDbCircle
 10
-47.1392636114992
 20
37.6218997887195
 30
0.0
 40
0.5
100
AcDbArc
 50
0.0
 51
90.0
  0
ARC
  5
18F
330
1F
100
AcDbEntity
  8
1
  6
Continuous
 62
     7
100
AcDbCircle
 10
-36.6392636114992
 20
-12.3781002112805
 30
0.0
 40
0.5
100
AcDbArc
 50
90.0
 51
180.0
  0
ARC
  5
190
330
1F
100
AcDbEntity
  8
1
  6
Continuous
 62
     7
100
AcDbCircle
 10
-32.6392636114992
 20
-12.3781002112805
 30
0.0
 40
0.5
100
AcDbArc
 50
0.0
 51
90.0
  0
ARC
  5
191
330
1F
100
AcDbEntity
  8
1
  6
Continuous
 62
     7
100
AcDbCircle
 10
-30.1392636114992
 20
-12.3781002112805
 30
0.0
 40
0.5
100
AcDbArc
 50
90.0
 51
180.0
  0
ARC
  5
192
330
1F
100
AcDbEntity
  8
1
  6
Continuous
 62
     7
100
AcDbCircle
 10
-25.1392636114992
 20
-12.3781002112805
 30
0.0
 40
0.5
100
AcDbArc
 50
0.0
 51
90.0
  0
ARC
  5
193
330
1F
100
AcDbEntity
  8
1
  6
Continuous
 62
     7
100
AcDbCircle
 10
-16.6392636114992
 20
-12.3781002112805
 30
0.0
 40
0.5
100
AcDbArc
 50
0.0
 51
90.0
  0
ARC
  5
194
330
1F
100
AcDbEntity
  8
1
  6
Continuous
 62
     7
100
AcDbCircle
 10
-16.6392636114992
 20
-15.3781002112805
 30
0.0
 40
0.5
100
AcDbArc
 50
-90.0
 51
0.0
  0
ARC
  5
195
330
1F
100
AcDbEntity
  8
1
  6
Continuous
 62
     7
100
AcDbCircle
 10
-22.6392636114992
 20
-15.3781002112805
 30
0.0
 40
0.5
100
AcDbArc
 50
180.0
 51
-90.0
  0
ARC
  5
196
330
1F
100
AcDbEntity
  8
1
  6
Continuous
 62
     7
100
AcDbCircle
 10
-25.1392636114992
 20
-15.3781002112805
 30
0.0
 40
0.5
100
AcDbArc
 50
-90.0
 51
0.0
  0
ARC
  5
197
330
1F
100
AcDbEntity
  8
1
  6
Continuous
 62
     7
100
AcDbCircle
 10
-30.1392636114992
 20
-15.3781002112805
 30
0.0
 40
0.5
100
AcDbArc
 50
180.0
 51
-90.0
  0
ARC
  5
198
330
1F
100
AcDbEntity
  8
1
  6
Continuous
 62
     7
100
AcDbCircle
 10
-32.6392636114992
 20
-15.3781002112805
 30
0.0
 40
0.5
100
AcDbArc
 50
-90.0
 51
0.0
  0
ARC
  5
199
330
1F
100
AcDbEntity
  8
1
  6
Continuous
 62
     7
100
AcDbCircle
 10
-36.6392636114992
 20
-15.3781002112805
 30
0.0
 40
0.5
100
AcDbArc
 50
180.0
 51
-90.0
  0
ARC
  5
19A
330
1F
100
AcDbEntity
  8
1
  6
Continuous
 62
     7
100
AcDbCircle
 10
-39.1392636114992
 20
-15.3781002112805
 30
0.0
 40
0.5
100
AcDbArc
 50
-90.0
 51
0.0
  0
ARC
  5
19B
330
1F
100
AcDbEntity
  8
1
  6
Continuous
 62
     7
100
AcDbCircle
 10
-43.6392636114992
 20
-15.3781002112805
 30
0.0
 40
0.5
100
AcDbArc
 50
180.0
 51
-90.0
  0
ARC
  5
19C
330
1F
100
AcDbEntity
  8
1
  6
Continuous
 62
     7
100
AcDbCircle
 10
-43.6392636114992
 20
-11.3781002112805
 30
0.0
 40
0.5
100
AcDbArc
 50
90.0
 51
180.0
  0
ARC
  5
19D
330
1F
100
AcDbEntity
  8
1
  6
Continuous
 62
     7
100
AcDbCircle
 10
-39.1392636114992
 20
-11.3781002112805
 30
0.0
 40
0.5
100
AcDbArc
 50
0.0
 51
90.0
  0
ARC
  5
19E
330
1F
100
AcDbEntity
  8
1
  6
Continuous
 62
     7
100
AcDbCircle
 10
-43.6392636114992
 20
33.6218997887195
 30
0.0
 40
0.5
100
AcDbArc
 50
180.0
 51
-90.0
  0
ARC
  5
19F
330
1F
100
AcDbEntity
  8
1
  6
Continuous
 62
     7
100
AcDbCircle
 10
-39.1392636114992
 20
33.6218997887195
 30
0.0
 40
0.5
100
AcDbArc
 50
-90.0
 51
0.0
  0
ARC
  5
1A0
330
1F
100
AcDbEntity
  8
1
  6
Continuous
 62
     7
100
AcDbCircle
 10
-26.6392636114992
 20
26.6218997887195
 30
0.0
 40
0.5
100
AcDbArc
 50
180.0
 51
-90.0
  0
ARC
  5
1A1
330
1F
100
AcDbEntity
  8
1
  6
Continuous
 62
     7
100
AcDbCircle
 10
-36.6392636114992
 20
26.6218997887195
 30
0.0
 40
0.5
100
AcDbArc
 50
180.0
 51
-90.0
  0
ARC
  5
1A2
330
1F
100
AcDbEntity
  8
1
  6
Continuous
 62
     7
100
AcDbCircle
 10
-29.1392636114992
 20
26.6218997887195
 30
0.0
 40
0.5
100
AcDbArc
 50
-90.0
 51
0.0
  0
ARC
  5
1A3
330
1F
100
AcDbEntity
  8
1
  6
Continuous
 62
     7
100
AcDbCircle
 10
-5.6392636114992
 20
37.6218997887195
 30
0.0
 40
0.5
100
AcDbArc
 50
90.0
 51
180.0
  0
ARC
  5
1A4
330
1F
100
AcDbEntity
  8
1
  6
Continuous
 62
     7
100
AcDbCircle
 10
-7.6392636114992
 20
37.6218997887195
 30
0.0
 40
0.5
100
AcDbArc
 50
0.0
 51
90.0
  0
ARC
  5
1A5
330
1F
100
AcDbEntity
  8
1
  6
Continuous
 62
     7
100
AcDbCircle
 10
-26.6392636114992
 20
37.6218997887195
 30
0.0
 40
0.5
100
AcDbArc
 50
90.0
 51
180.0
  0
ARC
  5
1A6
330
1F
100
AcDbEntity
  8
1
  6
Continuous
 62
     7
100
AcDbCircle
 10
-29.1392636114992
 20
37.6218997887195
 30
0.0
 40
0.5
100
AcDbArc
 50
0.0
 51
90.0
  0
ARC
  5
1A7
330
1F
100
AcDbEntity
  8
1
  6
Continuous
 62
     7
100
AcDbCircle
 10
-36.6392636114992
 20
37.6218997887195
 30
0.0
 40
0.5
100
AcDbArc
 50
90.0
 51
180.0
  0
ARC
  5
1A8
330
1F
100
AcDbEntity
  8
1
  6
Continuous
 62
     7
100
AcDbCircle
 10
-39.1392636114992
 20
37.6218997887195
 30
0.0
 40
0.5
100
AcDbArc
 50
0.0
 51
90.0
  0
ARC
  5
1A9
330
1F
100
AcDbEntity
  8
1
  6
Continuous
 62
     7
100
AcDbCircle
 10
-43.6392636114992
 20
37.6218997887195
 30
0.0
 40
0.5
100
AcDbArc
 50
90.0
 51
180.0
  0
ARC
  5
1AA
330
1F
100
AcDbEntity
  8
1
  6
Continuous
 62
     7
100
AcDbCircle
 10
7.67509193057445
 20
37.6218997887195
 30
0.0
 40
0.5000000000000089
100
AcDbArc
 50
15.00000000000431
 51
90.0
  0
ARC
  5
1AB
330
1F
100
AcDbEntity
  8
1
  6
Continuous
 62
     7
100
AcDbCircle
 10
8.61291410408337
 20
34.1218997887195
 30
0.0
 40
0.5
100
AcDbArc
 50
-90.0
 51
14.99999999999959
  0
ARC
  5
1AC
330
1F
100
AcDbEntity
  8
1
  6
Continuous
 62
     7
100
AcDbCircle
 10
8.3607363885008
 20
-33.8781002112805
 30
0.0
 40
1.0
100
AcDbArc
 50
180.0
 51
-90.0
  0
ARC
  5
1AD
330
1F
100
AcDbEntity
  8
1
  6
Continuous
 62
     7
100
AcDbCircle
 10
35.86077855451497
 20
7.6218997887195
 30
0.0
 40
0.5
100
AcDbArc
 50
0.0
 51
90.0
  0
ARC
  5
1AE
330
1F
100
AcDbEntity
  8
1
  6
Continuous
 62
     7
100
AcDbCircle
 10
38.8607363885008
 20
10.1218997887195
 30
0.0
 40
0.5
100
AcDbArc
 50
180.0
 51
-90.0
  0
ARC
  5
1AF
330
1F
100
AcDbEntity
  8
1
  6
Continuous
 62
     7
100
AcDbCircle
 10
36.3607363885008
 20
10.1218997887195
 30
0.0
 40
0.4999999999999964
100
AcDbArc
 50
-90.0
 51
0.0
  0
ARC
  5
1B0
330
1F
100
AcDbEntity
  8
1
  6
Continuous
 62
     7
100
AcDbCircle
 10
36.3607363885008
 20
18.6218997887195
 30
0.0
 40
0.5
100
AcDbArc
 50
0.0
 51
90.0
  0
ARC
  5
1B1
330
1F
100
AcDbEntity
  8
1
  6
Continuous
 62
     7
100
AcDbCircle
 10
38.8607363885008
 20
18.6218997887195
 30
0.0
 40
0.5
100
AcDbArc
 50
90.0
 51
180.0
  0
ARC
  5
1B2
330
1F
100
AcDbEntity
  8
1
  6
Continuous
 62
     7
100
AcDbCircle
 10
57.6750919305745
 20
18.6218997887195
 30
0.0
 40
0.4999999999999645
100
AcDbArc
 50
15.00000000000104
 51
90.0
  0
ARC
  5
1B3
330
1F
100
AcDbEntity
  8
1
  6
Continuous
 62
     7
100
AcDbCircle
 10
58.6129141040834
 20
15.1218997887195
 30
0.0
 40
0.5
100
AcDbArc
 50
-90.0
 51
15.00000000000125
  0
ARC
  5
1B4
330
1F
100
AcDbEntity
  8
1
  6
Continuous
 62
     7
100
AcDbCircle
 10
36.86077855451497
 20
-34.3781002112805
 30
0.0
 40
0.5
100
AcDbArc
 50
180.0
 51
-90.0
  0
ARC
  5
1B5
330
1F
100
AcDbEntity
  8
1
  6
Continuous
 62
     7
100
AcDbCircle
 10
39.36077855451497
 20
-25.52071615891984
 30
0.0
 40
0.5
100
AcDbArc
 50
180.0
 51
-105.0000000000002
  0
ARC
  5
1B6
330
1F
100
AcDbEntity
  8
1
  6
Continuous
 62
     7
100
AcDbCircle
 10
39.36077855451497
 20
-12.8781002112805
 30
0.0
 40
0.5
100
AcDbArc
 50
180.0
 51
-90.0
  0
ARC
  5
1B7
330
1F
100
AcDbEntity
  8
1
  6
Continuous
 62
     7
100
AcDbCircle
 10
41.86077855451499
 20
-15.8781002112805
 30
0.0
 40
0.5
100
AcDbArc
 50
0.0
 51
90.0
  0
ARC
  5
1B8
330
1F
100
AcDbEntity
  8
1
  6
Continuous
 62
     7
100
AcDbCircle
 10
39.36077855451497
 20
-15.8781002112805
 30
0.0
 40
0.5
100
AcDbArc
 50
90.0
 51
180.0
  0
ARC
  5
1B9
330
1F
100
AcDbEntity
  8
1
  6
Continuous
 62
     7
100
AcDbCircle
 10
36.36077855451497
 20
-28.3781002112805
 30
0.0
 40
2.5
100
AcDbArc
 50
90.0
 51
180.0
  0
ARC
  5
1BA
330
1F
100
AcDbEntity
  8
1
  6
Continuous
 62
     7
100
AcDbCircle
 10
37.86077855451497
 20
-29.3781002112805
 30
0.0
 40
1.0
100
AcDbArc
 50
0.0
 51
90.0
  0
ARC
  5
1BB
330
1F
100
AcDbEntity
  8
1
  6
Continuous
 62
     7
100
AcDbCircle
 10
37.36077855451497
 20
-29.3781002112805
 30
0.0
 40
1.0
100
AcDbArc
 50
90.0
 51
180.0
  0
ARC
  5
1BC
330
1F
100
AcDbEntity
  8
1
  6
Continuous
 62
     7
100
AcDbCircle
 10
58.99520775946949
 20
11.6218997887195
 30
0.0
 40
0.5000000000000085
100
AcDbArc
 50
39.9999999999992
 51
90.0
  0
ARC
  5
1BD
330
1F
100
AcDbEntity
  8
1
  6
Continuous
 62
     7
100
AcDbCircle
 10
55.8607363885008
 20
11.6218997887195
 30
0.0
 40
0.5
100
AcDbArc
 50
90.0
 51
180.0
  0
ARC
  5
1BE
330
1F
100
AcDbEntity
  8
1
  6
Continuous
 62
     7
100
AcDbCircle
 10
55.8607363885008
 20
8.6218997887195
 30
0.0
 40
0.5
100
AcDbArc
 50
180.0
 51
-90.0
  0
ARC
  5
1BF
330
1F
100
AcDbEntity
  8
1
  6
Continuous
 62
     7
100
AcDbCircle
 10
61.5125066530014
 20
8.6218997887195
 30
0.0
 40
0.5
100
AcDbArc
 50
-90.0
 51
39.99999999999905
  0
ARC
  5
1C0
330
1F
100
AcDbEntity
  8
1
  6
Continuous
 62
     7
100
AcDbCircle
 10
55.8607363885008
 20
11.6218997887195
 30
0.0
 40
3.0
100
AcDbArc
 50
90.0
 51
180.0
  0
ARC
  5
1C1
330
1F
100
AcDbEntity
  8
1
  6
Continuous
 62
     7
100
AcDbCircle
 10
63.728361588547
 20
7.6218997887195
 30
0.0
 40
0.5
100
AcDbArc
 50
-90.0
 51
14.99999999999791
  0
ARC
  5
1C2
330
1F
100
AcDbEntity
  8
1
  6
Continuous
 62
     7
100
AcDbCircle
 10
21.8607363885008
 20
-9.8781002112805
 30
0.0
 40
0.4999999999999965
100
AcDbArc
 50
-45.00000000000029
 51
44.99999999999942
  0
ARC
  5
1C3
330
1F
100
AcDbEntity
  8
1
  6
Continuous
 62
     7
100
AcDbCircle
 10
18.3607363885008
 20
-17.8781002112805
 30
0.0
 40
2.5
100
AcDbArc
 50
-90.0
 51
0.0
  0
ARC
  5
1C4
330
1F
100
AcDbEntity
  8
1
  6
Continuous
 62
     7
100
AcDbCircle
 10
18.3607363885008
 20
-1.8781002112805
 30
0.0
 40
2.5
100
AcDbArc
 50
0.0
 51
90.0
  0
ARC
  5
1C5
330
1F
100
AcDbEntity
  8
1
  6
Continuous
 62
     7
100
AcDbCircle
 10
7.3607363885008
 20
-23.3781002112805
 30
0.0
 40
1.5
100
AcDbArc
 50
-90.0
 51
0.0
  0
ARC
  5
1C6
330
1F
100
AcDbEntity
  8
1
  6
Continuous
 62
     7
100
AcDbCircle
 10
5.3607363885008
 20
-21.8781002112805
 30
0.0
 40
1.0
100
AcDbArc
 50
-90.0
 51
0.0
  0
ARC
  5
1C7
330
1F
100
AcDbEntity
  8
1
  6
Continuous
 62
     7
100
AcDbCircle
 10
4.8607363885008
 20
-33.8781002112805
 30
0.0
 40
1.0
100
AcDbArc
 50
-90.0
 51
0.0
  0
ARC
  5
1C8
330
1F
100
AcDbEntity
  8
1
  6
Continuous
 62
     7
100
AcDbCircle
 10
-7.27163841145298
 20
-24.3781002112805
 30
0.0
 40
0.5
100
AcDbArc
 50
0.0
 51
90.0
  0
ARC
  5
1C9
330
1F
100
AcDbEntity
  8
1
  6
Continuous
 62
     7
100
AcDbCircle
 10
-12.92340867595355
 20
-24.3781002112805
 30
0.0
 40
0.5
100
AcDbArc
 50
90.0
 51
-140.000000000001
  0
ARC
  5
1CA
330
1F
100
AcDbEntity
  8
1
  6
Continuous
 62
     7
100
AcDbCircle
 10
-49.6392636114992
 20
-7.8781002112805
 30
0.0
 40
0.5
100
AcDbArc
 50
90.0
 51
180.0
  0
ARC
  5
1CB
330
1F
100
AcDbEntity
  8
1
  6
Continuous
 62
     7
100
AcDbCircle
 10
8.99520775946954
 20
30.6218997887195
 30
0.0
 40
0.4999999999999988
100
AcDbArc
 50
40.00000000000041
 51
90.0
  0
ARC
  5
1CC
330
1F
100
AcDbEntity
  8
1
  6
Continuous
 62
     7
100
AcDbCircle
 10
5.8607363885008
 20
30.6218997887195
 30
0.0
 40
0.5
100
AcDbArc
 50
90.0
 51
180.0
  0
ARC
  5
1CD
330
1F
100
AcDbEntity
  8
1
  6
Continuous
 62
     7
100
AcDbCircle
 10
5.8607363885008
 20
27.6218997887195
 30
0.0
 40
0.5
100
AcDbArc
 50
180.0
 51
-90.0
  0
ARC
  5
1CE
330
1F
100
AcDbEntity
  8
1
  6
Continuous
 62
     7
100
AcDbCircle
 10
11.51250665300138
 20
27.6218997887195
 30
0.0
 40
0.5
100
AcDbArc
 50
-90.0
 51
40.00000000000001
  0
ARC
  5
1CF
330
1F
100
AcDbEntity
  8
1
  6
Continuous
 62
     7
100
AcDbCircle
 10
5.8607363885008
 20
30.6218997887195
 30
0.0
 40
3.000000000000004
100
AcDbArc
 50
90.0
 51
180.0
  0
ARC
  5
1D0
330
1F
100
AcDbEntity
  8
1
  6
Continuous
 62
     7
100
AcDbCircle
 10
13.72836158854703
 20
26.6218997887195
 30
0.0
 40
0.5
100
AcDbArc
 50
-90.0
 51
15.00000000000004
  0
ARC
  5
1D1
330
1F
100
AcDbEntity
  8
1
  6
Continuous
 62
     7
100
AcDbCircle
 10
-10.04332083059706
 20
23.1218997887195
 30
0.0
 40
3.0
100
AcDbArc
 50
90.0
 51
-165.0000000000001
  0
ARC
  5
1D2
330
1F
100
AcDbEntity
  8
1
  6
Continuous
 62
     7
100
AcDbCircle
 10
-13.6392636114992
 20
-9.3781002112805
 30
0.0
 40
2.5
100
AcDbArc
 50
90.0
 51
180.0
  0
ARC
  5
1D3
330
1F
100
AcDbEntity
  8
1
  6
Continuous
 62
     7
100
AcDbCircle
 10
-48.1392636114992
 20
32.6218997887195
 30
0.0
 40
1.0
100
AcDbArc
 50
180.0
 51
-90.0
  0
ARC
  5
1D4
330
1F
100
AcDbEntity
  8
1
  6
Continuous
 62
     7
100
AcDbCircle
 10
-47.6392636114992
 20
32.6218997887195
 30
0.0
 40
1.000000000000004
100
AcDbArc
 50
-90.0
 51
0.0
  0
ARC
  5
1D5
330
1F
100
AcDbEntity
  8
1
  6
Continuous
 62
     7
100
AcDbCircle
 10
-12.1392636114992
 20
-10.3781002112805
 30
0.0
 40
1.0
100
AcDbArc
 50
0.0
 51
90.0
  0
ARC
  5
1D6
330
1F
100
AcDbEntity
  8
1
  6
Continuous
 62
     7
100
AcDbCircle
 10
-12.6392636114992
 20
-10.3781002112805
 30
0.0
 40
1.000000000000004
100
AcDbArc
 50
90.0
 51
180.0
  0
ARC
  5
1D7
330
1F
100
AcDbEntity
  8
1
  6
Continuous
 62
     7
100
AcDbCircle
 10
-48.1392636114992
 20
-10.3781002112805
 30
0.0
 40
1.000000000000004
100
AcDbArc
 50
90.0
 51
180.0
  0
ARC
  5
1D8
330
1F
100
AcDbEntity
  8
1
  6
Continuous
 62
     7
100
AcDbCircle
 10
-47.6392636114992
 20
-10.3781002112805
 30
0.0
 40
1.0
100
AcDbArc
 50
0.0
 51
90.0
  0
HATCH
  5
1D9
330
1F
100
AcDbEntity
  8
1
  6
Continuous
 62
     3
100
AcDbHatch
 10
0.0
 20
0.0
 30
0.0
210
0.0
220
0.0
230
1.0
  2
SOLID
 70
     1
 71
     1
 91
        1
 92
        1
 93
       11
 72
     1
 10
-16.1392636114992
 20
24.1218997887195
 11
-16.1392636114992
 21
23.1218997887195
 72
     1
 10
-16.1392636114992
 20
23.1218997887195
 11
-36.1392636114992
 21
23.1218997887195
 72
     1
 10
-36.1392636114992
 20
23.1218997887195
 11
-36.1392636114992
 21
-8.878100211280497
 72
     1
 10
-36.1392636114992
 20
-8.878100211280497
 11
-16.1392636114992
 21
-8.878100211280497
 72
     1
 10
-16.1392636114992
 20
-8.878100211280497
 11
-16.1392636114992
 21
-9.378100211280497
 72
     1
 10
-16.1392636114992
 20
-9.378100211280497
 11
-16.1392636114992
 21
-9.878100211280497
 72
     1
 10
-16.1392636114992
 20
-9.878100211280497
 11
-36.1392636114992
 21
-9.878100211280497
 72
     2
 10
-36.1392636114992
 20
-8.878100211280497
 40
1.0
 50
90.0
 51
180.0
 73
     0
 72
     1
 10
-37.1392636114992
 20
-8.878100211280497
 11
-37.1392636114992
 21
23.1218997887195
 72
     2
 10
-36.1392636114992
 20
23.1218997887195
 40
1.0
 50
180.0
 51
270.0
 73
     0
 72
     1
 10
-36.1392636114992
 20
24.1218997887195
 11
-16.1392636114992
 21
24.1218997887195
 97
       11
330
85
330
84
330
83
330
82
330
81
330
7F
330
80
330
182
330
88
330
181
330
86
 75
     0
 76
     1
 98
        1
 10
0.0
 20
0.0
  0
HATCH
  5
1DA
330
1F
100
AcDbEntity
  8
1
  6
Continuous
 62
     3
100
AcDbHatch
 10
0.0
 20
0.0
 30
0.0
210
0.0
220
0.0
230
1.0
  2
SOLID
 70
     1
 71
     1
 91
        1
 92
        1
 93
       28
 72
     1
 10
32.86077855451497
 20
-33.3781002112805
 11
23.90030758847249
 21
-33.3781002112805
 72
     1
 10
23.90030758847249
 20
-33.3781002112805
 11
23.90030758847249
 21
-34.3781002112805
 72
     1
 10
23.90030758847249
 20
-34.3781002112805
 11
32.86077855451497
 21
-34.3781002112805
 72
     2
 10
32.86077855451497
 20
-33.3781002112805
 40
1.0
 50
270.0
 51
360.0
 73
     1
 72
     1
 10
33.86077855451497
 20
-33.3781002112805
 11
33.86077855451497
 21
-28.3781002112805
 72
     1
 10
33.86077855451497
 20
-28.3781002112805
 11
33.86077855451497
 21
-25.3781002112805
 72
     1
 10
33.86077855451497
 20
-25.3781002112805
 11
35.36077855451497
 21
-25.3781002112805
 72
     2
 10
35.36077855451497
 20
-24.3781002112805
 40
1.0
 50
270.0
 51
360.0
 73
     1
 72
     1
 10
36.36077855451497
 20
-24.3781002112805
 11
36.36077855451497
 21
-2.378100211280504
 72
     2
 10
35.36077855451497
 20
-2.378100211280504
 40
1.0
 50
0.0
 51
90.0
 73
     1
 72
     1
 10
35.36077855451497
 20
-1.378100211280511
 11
33.86077855451497
 21
-1.378100211280511
 72
     1
 10
33.86077855451497
 20
-1.378100211280511
 11
33.86077855451497
 21
6.621899788719489
 72
     2
 10
32.86077855451497
 20
6.621899788719489
 40
1.0
 50
0.0
 51
90.0
 73
     1
 72
     1
 10
32.86077855451497
 20
7.621899788719489
 11
9.860778554514965
 21
7.621899788719489
 72
     2
 10
9.860778554514965
 20
6.621899788719489
 40
1.0
 50
90.0
 51
180.0
 73
     1
 72
     1
 10
8.860778554514965
 20
6.621899788719489
 11
8.860736388500797
 21
6.621899788719489
 72
     1
 10
8.860736388500797
 20
6.621899788719489
 11
8.860736388500797
 21
1.621899788719489
 72
     1
 10
8.860736388500797
 20
1.621899788719489
 11
9.860778554514965
 21
1.621899788719489
 72
     1
 10
9.860778554514965
 20
1.621899788719489
 11
9.860778554514965
 21
6.621899788719489
 72
     1
 10
9.860778554514965
 20
6.621899788719489
 11
32.86077855451497
 21
6.621899788719489
 72
     1
 10
32.86077855451497
 20
6.621899788719489
 11
32.86077855451497
 21
-1.378100211280511
 72
     2
 10
33.86077855451497
 20
-1.378100211280511
 40
1.0
 50
180.0
 51
270.0
 73
     1
 72
     1
 10
33.86077855451497
 20
-2.378100211280504
 11
35.36077855451497
 21
-2.378100211280504
 72
     1
 10
35.36077855451497
 20
-2.378100211280504
 11
35.36077855451497
 21
-13.3781002112805
 72
     1
 10
35.36077855451497
 20
-13.3781002112805
 11
35.36077855451497
 21
-24.3781002112805
 72
     1
 10
35.36077855451497
 20
-24.3781002112805
 11
33.86077855451497
 21
-24.3781002112805
 72
     2
 10
33.86077855451497
 20
-25.3781002112805
 40
1.0
 50
90.0
 51
180.0
 73
     1
 72
     1
 10
32.86077855451497
 20
-25.3781002112805
 11
32.86077855451497
 21
-33.3781002112805
 97
       28
330
7B
330
178
330
7A
330
180
330
BC
330
79
330
78
330
17F
330
38
330
17E
330
74
330
73
330
17D
330
6F
330
189
330
37
330
6B
330
6D
330
6E
330
70
330
72
330
18A
330
75
330
76
330
7E
330
7D
330
18B
330
7C
 75
     0
 76
     1
 98
        1
 10
0.0
 20
0.0
  0
ENDSEC
  0
SECTION
  2
OBJECTS
  0
DICTIONARY
  5
C
330
0
100
AcDbDictionary
281
     1
  3
ACAD_GROUP
350
D
  3
ACAD_LAYOUT
350
1A
  3
ACAD_MLINESTYLE
350
17
  3
ACAD_PLOTSETTINGS
350
19
  3
ACAD_PLOTSTYLENAME
350
E
  0
DICTIONARY
  5
D
102
{ACAD_REACTORS
330
C
102
}
330
C
100
AcDbDictionary
281
     1
  0
DICTIONARY
  5
1A
102
{ACAD_REACTORS
330
C
102
}
330
C
100
AcDbDictionary
281
     1
  3
Layout1
350
1E
  3
Layout2
350
26
  3
Model
350
22
  0
DICTIONARY
  5
17
102
{ACAD_REACTORS
330
C
102
}
330
C
100
AcDbDictionary
281
     1
  3
Standard
350
18
  0
DICTIONARY
  5
19
102
{ACAD_REACTORS
330
C
102
}
330
C
100
AcDbDictionary
281
     1
  0
ACDBDICTIONARYWDFLT
  5
E
102
{ACAD_REACTORS
330
C
102
}
330
C
100
AcDbDictionary
281
     1
  3
Normal
350
F
100
AcDbDictionaryWithDefault
340
F
  0
LAYOUT
  5
1E
102
{ACAD_REACTORS
330
1A
102
}
330
1A
100
AcDbPlotSettings
  1

  2

  4

  6

 40
0.0
 41
0.0
 42
0.0
 43
0.0
 44
0.0
 45
0.0
 46
0.0
 47
0.0
 48
0.0
 49
0.0
140
0.0
141
0.0
142
1.0
143
1.0
 70
   688
 72
     0
 73
     0
 74
     5
  7

 75
    16
 76
     0
 77
     2
 78
   300
147
1.0
148
0.0
149
0.0
100
AcDbLayout
  1
Layout1
 70
     1
 71
     1
 10
0.0
 20
0.0
 11
0.0
 21
0.0
 12
0.0
 22
0.0
 32
0.0
 14
0.0
 24
0.0
 34
0.0
 15
0.0
 25
0.0
 35
0.0
146
0.0
 13
0.0
 23
0.0
 33
0.0
 16
1.0
 26
0.0
 36
0.0
 17
0.0
 27
1.0
 37
0.0
 76
     0
330
1B
  0
LAYOUT
  5
26
102
{ACAD_REACTORS
330
1A
102
}
330
1A
100
AcDbPlotSettings
  1

  2

  4

  6

 40
0.0
 41
0.0
 42
0.0
 43
0.0
 44
0.0
 45
0.0
 46
0.0
 47
0.0
 48
0.0
 49
0.0
140
0.0
141
0.0
142
1.0
143
1.0
 70
   688
 72
     0
 73
     0
 74
     5
  7

 75
    16
 76
     0
 77
     2
 78
   300
147
1.0
148
0.0
149
0.0
100
AcDbLayout
  1
Layout2
 70
     1
 71
     2
 10
0.0
 20
0.0
 11
0.0
 21
0.0
 12
0.0
 22
0.0
 32
0.0
 14
0.0
 24
0.0
 34
0.0
 15
0.0
 25
0.0
 35
0.0
146
0.0
 13
0.0
 23
0.0
 33
0.0
 16
1.0
 26
0.0
 36
0.0
 17
0.0
 27
1.0
 37
0.0
 76
     0
330
23
  0
LAYOUT
  5
22
102
{ACAD_REACTORS
330
1A
102
}
330
1A
100
AcDbPlotSettings
  1

  2

  4

  6

 40
0.0
 41
0.0
 42
0.0
 43
0.0
 44
0.0
 45
0.0
 46
0.0
 47
0.0
 48
0.0
 49
0.0
140
0.0
141
0.0
142
1.0
143
1.0
 70
  1712
 72
     0
 73
     0
 74
     0
  7

 75
     0
 76
     0
 77
     2
 78
   300
147
1.0
148
0.0
149
0.0
100
AcDbLayout
  1
Model
 70
     1
 71
     0
 10
0.0
 20
0.0
 11
0.0
 21
0.0
 12
0.0
 22
0.0
 32
0.0
 14
-54.6392636114992
 24
-40.0943320053731
 34
0.0
 15
64.22836158854706
 25
41.1218997887195
 35
0.0
146
0.0
 13
0.0
 23
0.0
 33
0.0
 16
1.0
 26
0.0
 36
0.0
 17
0.0
 27
1.0
 37
0.0
 76
     0
330
1F
  0
MLINESTYLE
  5
18
102
{ACAD_REACTORS
330
17
102
}
330
17
100
AcDbMlineStyle
  2
Standard
 70
     0
  3

 62
   256
 51
90.0
 52
90.0
 71
     2
 49
0.5
 62
   256
  6
BYLAYER
 49
-0.5
 62
   256
  6
BYLAYER
  0
ACDBPLACEHOLDER
  5
F
102
{ACAD_REACTORS
330
E
102
}
330
E
  0
ENDSEC
  0
EOF
