  0
SECTION
  2
HEADER
  9
$ACADVER
  1
AC1018
  9
$ACADMAINTVER
 70
     0
  9
$DWGCODEPAGE
  3
ANSI_1252
  9
$INSBASE
 10
0.0
 20
0.0
 30
0.0
  9
$EXTMIN
 10
142.9559900388853
 20
-33.59910575428241
 30
0.0
  9
$EXTMAX
 10
266.9559900388853
 20
48.8455891204944
 30
0.0
  9
$LIMMIN
 10
0.0
 20
0.0
  9
$LIMMAX
 10
12.0
 20
9.0
  9
$ORTHOMODE
 70
     0
  9
$REGENMODE
 70
     1
  9
$FILLMODE
 70
     1
  9
$QTEXTMODE
 70
     0
  9
$MIRRTEXT
 70
     1
  9
$LTSCALE
 40
1.0
  9
$ATTMODE
 70
     1
  9
$TEXTSIZE
 40
0.2
  9
$TRACEWID
 40
0.05
  9
$TEXTSTYLE
  7
Standard
  9
$CLAYER
  8
0
  9
$CELTYPE
  6
ByLayer
  9
$CECOLOR
 62
   256
  9
$CELTSCALE
 40
1.0
  9
$DISPSILH
 70
     0
  9
$DIMSCALE
 40
1.0
  9
$DIMASZ
 40
0.18
  9
$DIMEXO
 40
0.0625
  9
$DIMDLI
 40
0.38
  9
$DIMRND
 40
0.0
  9
$DIMDLE
 40
0.0
  9
$DIMEXE
 40
0.18
  9
$DIMTP
 40
0.0
  9
$DIMTM
 40
0.0
  9
$DIMTXT
 40
0.18
  9
$DIMCEN
 40
0.09
  9
$DIMTSZ
 40
0.0
  9
$DIMTOL
 70
     0
  9
$DIMLIM
 70
     0
  9
$DIMTIH
 70
     1
  9
$DIMTOH
 70
     1
  9
$DIMSE1
 70
     0
  9
$DIMSE2
 70
     0
  9
$DIMTAD
 70
     0
  9
$DIMZIN
 70
     0
  9
$DIMBLK
  1

  9
$DIMASO
 70
     1
  9
$DIMSHO
 70
     1
  9
$DIMPOST
  1

  9
$DIMAPOST
  1

  9
$DIMALT
 70
     0
  9
$DIMALTD
 70
     2
  9
$DIMALTF
 40
25.4
  9
$DIMLFAC
 40
1.0
  9
$DIMTOFL
 70
     0
  9
$DIMTVP
 40
0.0
  9
$DIMTIX
 70
     0
  9
$DIMSOXD
 70
     0
  9
$DIMSAH
 70
     0
  9
$DIMBLK1
  1

  9
$DIMBLK2
  1

  9
$DIMSTYLE
  2
Standard
  9
$DIMCLRD
 70
     0
  9
$DIMCLRE
 70
     0
  9
$DIMCLRT
 70
     0
  9
$DIMTFAC
 40
1.0
  9
$DIMGAP
 40
0.09
  9
$DIMJUST
 70
     0
  9
$DIMSD1
 70
     0
  9
$DIMSD2
 70
     0
  9
$DIMTOLJ
 70
     1
  9
$DIMTZIN
 70
     0
  9
$DIMALTZ
 70
     0
  9
$DIMALTTZ
 70
     0
  9
$DIMUPT
 70
     0
  9
$DIMDEC
 70
     4
  9
$DIMTDEC
 70
     4
  9
$DIMALTU
 70
     2
  9
$DIMALTTD
 70
     2
  9
$DIMTXSTY
  7
Standard
  9
$DIMAUNIT
 70
     0
  9
$DIMADEC
 70
     0
  9
$DIMALTRND
 40
0.0
  9
$DIMAZIN
 70
     0
  9
$DIMDSEP
 70
    46
  9
$DIMATFIT
 70
     3
  9
$DIMFRAC
 70
     0
  9
$DIMLDRBLK
  1

  9
$DIMLUNIT
 70
     2
  9
$DIMLWD
 70
    -2
  9
$DIMLWE
 70
    -2
  9
$DIMTMOVE
 70
     0
  9
$LUNITS
 70
     2
  9
$LUPREC
 70
     4
  9
$SKETCHINC
 40
0.1
  9
$FILLETRAD
 40
0.5
  9
$AUNITS
 70
     0
  9
$AUPREC
 70
     0
  9
$MENU
  1
.
  9
$ELEVATION
 40
0.0
  9
$PELEVATION
 40
0.0
  9
$THICKNESS
 40
0.0
  9
$LIMCHECK
 70
     0
  9
$CHAMFERA
 40
0.5
  9
$CHAMFERB
 40
0.5
  9
$CHAMFERC
 40
1.0
  9
$CHAMFERD
 40
0.0
  9
$SKPOLY
 70
     0
  9
$TDCREATE
 40
2454483.377556968
  9
$TDUCREATE
 40
2454483.335890301
  9
$TDUPDATE
 40
2454483.377556979
  9
$TDUUPDATE
 40
2454483.335890313
  9
$TDINDWG
 40
0.0000000116
  9
$TDUSRTIMER
 40
0.0000000116
  9
$USRTIMER
 70
     1
  9
$ANGBASE
 50
0.0
  9
$ANGDIR
 70
     0
  9
$PDMODE
 70
     0
  9
$PDSIZE
 40
0.0
  9
$PLINEWID
 40
0.0
  9
$SPLFRAME
 70
     0
  9
$SPLINETYPE
 70
     6
  9
$SPLINESEGS
 70
     8
  9
$HANDSEED
  5
18B
  9
$SURFTAB1
 70
     6
  9
$SURFTAB2
 70
     6
  9
$SURFTYPE
 70
     6
  9
$SURFU
 70
     6
  9
$SURFV
 70
     6
  9
$UCSBASE
  2

  9
$UCSNAME
  2

  9
$UCSORG
 10
0.0
 20
0.0
 30
0.0
  9
$UCSXDIR
 10
1.0
 20
0.0
 30
0.0
  9
$UCSYDIR
 10
0.0
 20
1.0
 30
0.0
  9
$UCSORTHOREF
  2

  9
$UCSORTHOVIEW
 70
     0
  9
$UCSORGTOP
 10
0.0
 20
0.0
 30
0.0
  9
$UCSORGBOTTOM
 10
0.0
 20
0.0
 30
0.0
  9
$UCSORGLEFT
 10
0.0
 20
0.0
 30
0.0
  9
$UCSORGRIGHT
 10
0.0
 20
0.0
 30
0.0
  9
$UCSORGFRONT
 10
0.0
 20
0.0
 30
0.0
  9
$UCSORGBACK
 10
0.0
 20
0.0
 30
0.0
  9
$PUCSBASE
  2

  9
$PUCSNAME
  2

  9
$PUCSORG
 10
0.0
 20
0.0
 30
0.0
  9
$PUCSXDIR
 10
1.0
 20
0.0
 30
0.0
  9
$PUCSYDIR
 10
0.0
 20
1.0
 30
0.0
  9
$PUCSORTHOREF
  2

  9
$PUCSORTHOVIEW
 70
     0
  9
$PUCSORGTOP
 10
0.0
 20
0.0
 30
0.0
  9
$PUCSORGBOTTOM
 10
0.0
 20
0.0
 30
0.0
  9
$PUCSORGLEFT
 10
0.0
 20
0.0
 30
0.0
  9
$PUCSORGRIGHT
 10
0.0
 20
0.0
 30
0.0
  9
$PUCSORGFRONT
 10
0.0
 20
0.0
 30
0.0
  9
$PUCSORGBACK
 10
0.0
 20
0.0
 30
0.0
  9
$USERI1
 70
     0
  9
$USERI2
 70
     0
  9
$USERI3
 70
     0
  9
$USERI4
 70
     0
  9
$USERI5
 70
     0
  9
$USERR1
 40
14.5
  9
$USERR2
 40
0.0
  9
$USERR3
 40
0.0
  9
$USERR4
 40
0.0
  9
$USERR5
 40
0.0
  9
$WORLDVIEW
 70
     1
  9
$SHADEDGE
 70
     3
  9
$SHADEDIF
 70
    70
  9
$TILEMODE
 70
     1
  9
$MAXACTVP
 70
    64
  9
$PINSBASE
 10
0.0
 20
0.0
 30
0.0
  9
$PLIMCHECK
 70
     0
  9
$PEXTMIN
 10
1.00000000000000E+20
 20
1.00000000000000E+20
 30
1.00000000000000E+20
  9
$PEXTMAX
 10
-1.00000000000000E+20
 20
-1.00000000000000E+20
 30
-1.00000000000000E+20
  9
$PLIMMIN
 10
0.0
 20
0.0
  9
$PLIMMAX
 10
12.0
 20
9.0
  9
$UNITMODE
 70
     0
  9
$VISRETAIN
 70
     1
  9
$PLINEGEN
 70
     0
  9
$PSLTSCALE
 70
     1
  9
$TREEDEPTH
 70
  3020
  9
$CMLSTYLE
  2
Standard
  9
$CMLJUST
 70
     0
  9
$CMLSCALE
 40
1.0
  9
$PROXYGRAPHICS
 70
     1
  9
$MEASUREMENT
 70
     1
  9
$CELWEIGHT
370
    -1
  9
$ENDCAPS
280
     0
  9
$JOINSTYLE
280
     0
  9
$LWDISPLAY
290
     0
  9
$INSUNITS
 70
     1
  9
$HYPERLINKBASE
  1

  9
$STYLESHEET
  1

  9
$XEDIT
290
     1
  9
$CEPSNTYPE
380
     0
  9
$PSTYLEMODE
290
     1
  9
$FINGERPRINTGUID
  2
{7209E804-CFFE-4BC7-B881-EECF32677E5B}
  9
$VERSIONGUID
  2
{FAEB1C32-E019-11D5-929B-00C0DF256EC4}
  9
$EXTNAMES
290
     1
  9
$PSVPSCALE
 40
0.0
  9
$OLESTARTUP
290
     0
  9
$SORTENTS
280
   127
  9
$INDEXCTL
280
     0
  9
$HIDETEXT
280
     1
  9
$XCLIPFRAME
290
     0
  9
$HALOGAP
280
     0
  9
$OBSCOLOR
 70
   257
  9
$OBSLTYPE
280
     0
  9
$INTERSECTIONDISPLAY
280
     0
  9
$INTERSECTIONCOLOR
 70
   257
  9
$DIMASSOC
280
     2
  9
$PROJECTNAME
  1

  0
ENDSEC
  0
SECTION
  2
CLASSES
  0
CLASS
  1
ACDBDICTIONARYWDFLT
  2
AcDbDictionaryWithDefault
  3
ObjectDBX Classes
 90
        0
 91
        3
280
     0
281
     0
  0
CLASS
  1

  2
exOdDbCircle
  3

 90
        0
 91
        3
280
     0
281
     1
  0
ENDSEC
  0
SECTION
  2
TABLES
  0
TABLE
  2
VPORT
  5
8
330
0
100
AcDbSymbolTable
 70
     1
  0
VPORT
  5
29
330
8
100
AcDbSymbolTableRecord
100
AcDbViewportTableRecord
  2
*Active
 70
     0
 10
0.0
 20
0.0
 11
1.0
 21
1.0
 12
204.9559900388853
 22
7.623241683106
 13
0.0
 23
0.0
 14
0.5
 24
0.5
 15
0.5
 25
0.5
 16
0.0
 26
0.0
 36
1.0
 17
0.0
 27
0.0
 37
0.0
 40
90.6891643622545
 41
1.60267857142857
 42
50.0
 43
0.0
 44
0.0
 50
0.0
 51
0.0
 71
     0
 72
   100
 73
     1
 74
     3
 75
     0
 76
     0
 77
     0
 78
     0
281
     0
 65
     1
110
0.0
120
0.0
130
0.0
111
1.0
121
0.0
131
0.0
112
0.0
122
1.0
132
0.0
 79
     0
146
0.0
  0
ENDTAB
  0
TABLE
  2
LTYPE
  5
5
330
0
100
AcDbSymbolTable
 70
     8
  0
LTYPE
  5
14
330
5
100
AcDbSymbolTableRecord
100
AcDbLinetypeTableRecord
  2
ByBlock
 70
     0
  3

 72
    65
 73
     0
 40
0.0
  0
LTYPE
  5
15
330
5
100
AcDbSymbolTableRecord
100
AcDbLinetypeTableRecord
  2
ByLayer
 70
     0
  3

 72
    65
 73
     0
 40
0.0
  0
LTYPE
  5
16
330
5
100
AcDbSymbolTableRecord
100
AcDbLinetypeTableRecord
  2
Continuous
 70
     0
  3
Solid line
 72
    65
 73
     0
 40
0.0
  0
LTYPE
  5
2A
330
5
100
AcDbSymbolTableRecord
100
AcDbLinetypeTableRecord
  2
DASHED
 70
     0
  3
Dashed
 72
    65
 73
     2
 40
15.0
 49
7.0
 74
     0
 49
-8.0
 74
     0
  0
LTYPE
  5
2B
330
5
100
AcDbSymbolTableRecord
100
AcDbLinetypeTableRecord
  2
DOTTED
 70
     0
  3
Dotted
 72
    65
 73
     2
 40
1.0
 49
0.0
 74
     0
 49
-1.0
 74
     0
  0
LTYPE
  5
2C
330
5
100
AcDbSymbolTableRecord
100
AcDbLinetypeTableRecord
  2
DOT_CENTER
 70
     0
  3
Dot_Center
 72
    65
 73
     4
 40
14.0
 49
12.0
 74
     0
 49
-1.0
 74
     0
 49
0.0
 74
     0
 49
-1.0
 74
     0
  0
LTYPE
  5
2D
330
5
100
AcDbSymbolTableRecord
100
AcDbLinetypeTableRecord
  2
LONG_DASHED
 70
     0
  3
Long_Dashed
 72
    65
 73
     2
 40
15.0
 49
10.0
 74
     0
 49
-5.0
 74
     0
  0
LTYPE
  5
2E
330
5
100
AcDbSymbolTableRecord
100
AcDbLinetypeTableRecord
  2
DASH_CENTER
 70
     0
  3
Dash_Center
 72
    65
 73
     4
 40
14.0
 49
11.0
 74
     0
 49
-1.0
 74
     0
 49
1.0
 74
     0
 49
-1.0
 74
     0
  0
LTYPE
  5
2F
330
5
100
AcDbSymbolTableRecord
100
AcDbLinetypeTableRecord
  2
PHANTOM
 70
     0
  3
Phantom
 72
    65
 73
     6
 40
13.0
 49
10.0
 74
     0
 49
-1.0
 74
     0
 49
0.0
 74
     0
 49
-1.0
 74
     0
 49
0.0
 74
     0
 49
-1.0
 74
     0
  0
LTYPE
  5
30
330
5
100
AcDbSymbolTableRecord
100
AcDbLinetypeTableRecord
  2
CENTER_DASH_DASH
 70
     0
  3
Center_Dash_Dash
 72
    65
 73
     6
 40
14.0
 49
9.0
 74
     0
 49
-1.0
 74
     0
 49
1.0
 74
     0
 49
-1.0
 74
     0
 49
1.0
 74
     0
 49
-1.0
 74
     0
  0
ENDTAB
  0
TABLE
  2
LAYER
  5
2
330
0
100
AcDbSymbolTable
 70
     2
  0
LAYER
  5
10
330
2
100
AcDbSymbolTableRecord
100
AcDbLayerTableRecord
  2
0
 70
     0
 62
     7
  6
Continuous
370
    -3
390
F
  0
LAYER
  5
31
330
2
100
AcDbSymbolTableRecord
100
AcDbLayerTableRecord
  2
1
 70
     0
 62
     7
  6
Continuous
370
    -3
390
F
  0
ENDTAB
  0
TABLE
  2
STYLE
  5
3
330
0
100
AcDbSymbolTable
 70
     1
  0
STYLE
  5
11
330
3
100
AcDbSymbolTableRecord
100
AcDbTextStyleTableRecord
  2
Standard
 70
     0
 40
0.0
 41
1.0
 50
0.0
 71
     0
 42
0.2
  3
txt
  4

  0
ENDTAB
  0
TABLE
  2
VIEW
  5
6
330
0
100
AcDbSymbolTable
 70
     0
  0
ENDTAB
  0
TABLE
  2
UCS
  5
7
330
0
100
AcDbSymbolTable
 70
     0
  0
ENDTAB
  0
TABLE
  2
APPID
  5
9
330
0
100
AcDbSymbolTable
 70
     1
  0
APPID
  5
12
330
9
100
AcDbSymbolTableRecord
100
AcDbRegAppTableRecord
  2
ACAD
 70
     0
  0
ENDTAB
  0
TABLE
  2
DIMSTYLE
  5
A
330
0
100
AcDbSymbolTable
 70
     1
100
AcDbDimStyleTable
  0
DIMSTYLE
105
27
330
A
100
AcDbSymbolTableRecord
100
AcDbDimStyleTableRecord
  2
Standard
 70
     0
340
11
  0
ENDTAB
  0
TABLE
  2
BLOCK_RECORD
  5
1
330
0
100
AcDbSymbolTable
 70
     1
  0
BLOCK_RECORD
  5
1F
330
1
100
AcDbSymbolTableRecord
100
AcDbBlockTableRecord
  2
*Model_Space
340
22
  0
BLOCK_RECORD
  5
1B
330
1
100
AcDbSymbolTableRecord
100
AcDbBlockTableRecord
  2
*Paper_Space
340
1E
  0
BLOCK_RECORD
  5
23
330
1
100
AcDbSymbolTableRecord
100
AcDbBlockTableRecord
  2
*Paper_Space0
340
26
  0
ENDTAB
  0
ENDSEC
  0
SECTION
  2
BLOCKS
  0
BLOCK
  5
20
330
1F
100
AcDbEntity
  8
0
100
AcDbBlockBegin
  2
*Model_Space
 70
     0
 71
     0
 10
0.0
 20
0.0
 30
0.0
  3
*Model_Space
  1

  0
ENDBLK
  5
21
330
1F
100
AcDbEntity
  8
0
100
AcDbBlockEnd
  0
BLOCK
  5
1C
330
1B
100
AcDbEntity
 67
     1
  8
0
100
AcDbBlockBegin
  2
*Paper_Space
 70
     0
 71
     0
 10
0.0
 20
0.0
 30
0.0
  3
*Paper_Space
  1

  0
ENDBLK
  5
1D
330
1B
100
AcDbEntity
 67
     1
  8
0
100
AcDbBlockEnd
  0
BLOCK
  5
24
330
23
100
AcDbEntity
  8
0
100
AcDbBlockBegin
  2
*Paper_Space0
 70
     0
 71
     0
 10
0.0
 20
0.0
 30
0.0
  3
*Paper_Space0
  1

  0
ENDBLK
  5
25
330
23
100
AcDbEntity
  8
0
100
AcDbBlockEnd
  0
ENDSEC
  0
SECTION
  2
ENTITIES
  0
LINE
  5
32
330
1F
100
AcDbEntity
  8
1
  6
DOT_CENTER
 62
     2
100
AcDbLine
 10
174.4559900388853
 20
-26.15441087950561
 30
0.0
 11
178.4559900388853
 21
-26.15441087950561
 31
0.0
  0
LINE
  5
33
330
1F
100
AcDbEntity
  8
1
  6
DOT_CENTER
 62
     2
100
AcDbLine
 10
174.4559900388853
 20
-26.15441087950561
 30
0.0
 11
174.4559900388853
 21
-33.59910575428241
 31
0.0
  0
LINE
  5
34
330
1F
100
AcDbEntity
  8
1
  6
DOT_CENTER
 62
     2
100
AcDbLine
 10
174.4559900388853
 20
-26.15441087950561
 30
0.0
 11
226.3202979336113
 21
-21.616871897099
 31
0.0
  0
LINE
  5
35
330
1F
100
AcDbEntity
  8
1
  6
Continuous
 62
     7
100
AcDbLine
 10
222.7411214528889
 20
-24.94146877655086
 30
0.0
 11
221.5821859488141
 21
-25.54477241368678
 31
0.0
  0
LINE
  5
36
330
1F
100
AcDbEntity
  8
1
  6
Continuous
 62
     7
100
AcDbLine
 10
183.1851122009081
 20
-28.40217116042575
 30
0.0
 11
183.2286900722819
 21
-28.90026850947162
 31
0.0
  0
LINE
  5
37
330
1F
100
AcDbEntity
  8
1
  6
Continuous
 62
     2
100
AcDbLine
 10
183.1851122009081
 20
-28.40217116042575
 30
0.0
 11
222.7411214528889
 21
-24.94146877655086
 31
0.0
  0
LINE
  5
38
330
1F
100
AcDbEntity
  8
1
  6
Continuous
 62
     7
100
AcDbLine
 10
222.218186996403
 20
-18.96430058800041
 30
0.0
 11
224.5851310102984
 21
-19.71059516892597
 31
0.0
  0
LINE
  5
39
330
1F
100
AcDbEntity
  8
1
  6
Continuous
 62
     7
100
AcDbLine
 10
182.6621777444221
 20
-22.42500297187529
 30
0.0
 11
183.1851122009081
 21
-28.40217116042575
 31
0.0
  0
LINE
  5
3A
330
1F
100
AcDbEntity
  8
1
  6
Continuous
 62
     2
100
AcDbLine
 10
182.6621777444221
 20
-22.42500297187529
 30
0.0
 11
222.218186996403
 21
-18.96430058800041
 31
0.0
  0
LINE
  5
3B
330
1F
100
AcDbEntity
  8
1
  6
Continuous
 62
     7
100
AcDbLine
 10
220.9720957495805
 20
-18.57140952704457
 30
0.0
 11
221.5821859488141
 21
-25.54477241368678
 31
0.0
  0
LINE
  5
3C
330
1F
100
AcDbEntity
  8
1
  6
Continuous
 62
     7
100
AcDbLine
 10
183.2286900722819
 20
-28.90026850947162
 30
0.0
 11
180.2174182166211
 21
-29.16372065963662
 31
0.0
  0
LINE
  5
3D
330
1F
100
AcDbEntity
  8
1
  6
Continuous
 62
     7
100
AcDbLine
 10
182.6185998730483
 20
-21.92690562282942
 30
0.0
 11
220.9720957495805
 21
-18.57140952704457
 31
0.0
  0
LINE
  5
3E
330
1F
100
AcDbEntity
  8
1
  6
Continuous
 62
     7
100
AcDbLine
 10
182.6185998730483
 20
-21.92690562282942
 30
0.0
 11
182.6621777444221
 21
-22.42500297187529
 31
0.0
  0
LINE
  5
3F
330
1F
100
AcDbEntity
  8
1
  6
Continuous
 62
     7
100
AcDbLine
 10
221.5821859488141
 20
-25.54477241368678
 30
0.0
 11
183.2286900722819
 21
-28.90026850947162
 31
0.0
  0
LINE
  5
40
330
1F
100
AcDbEntity
  8
1
  6
Continuous
 62
     7
100
AcDbLine
 10
224.9425135747385
 20
-23.79549657257177
 30
0.0
 11
222.7411214528889
 21
-24.94146877655086
 31
0.0
  0
LINE
  5
41
330
1F
100
AcDbEntity
  8
1
  6
Continuous
 62
     7
100
AcDbLine
 10
224.5851310102984
 20
-19.71059516892597
 30
0.0
 11
224.9425135747385
 21
-23.79549657257177
 31
0.0
  0
LINE
  5
42
330
1F
100
AcDbEntity
  8
1
  6
Continuous
 62
     7
100
AcDbLine
 10
220.9720957495805
 20
-18.57140952704457
 30
0.0
 11
222.218186996403
 21
-18.96430058800041
 31
0.0
  0
LINE
  5
43
330
1F
100
AcDbEntity
  8
1
  6
Continuous
 62
     7
100
AcDbLine
 10
179.6073280173875
 20
-22.19035777299441
 30
0.0
 11
182.6185998730483
 21
-21.92690562282942
 31
0.0
  0
LINE
  5
44
330
1F
100
AcDbEntity
  8
1
  6
DOT_CENTER
 62
     2
100
AcDbLine
 10
167.1024381449028
 20
-26.15441087950561
 30
0.0
 11
174.4559900388853
 21
-26.15441087950561
 31
0.0
  0
LINE
  5
45
102
{ACAD_REACTORS
330
18A
330
18A
102
}
330
1F
100
AcDbEntity
  8
1
  6
Continuous
 62
     7
100
AcDbLine
 10
236.4559900388853
 20
19.34558912049439
 30
0.0
 11
220.7501130697414
 21
19.34558912049439
 31
0.0
  0
LINE
  5
46
102
{ACAD_REACTORS
330
18A
330
18A
102
}
330
1F
100
AcDbEntity
  8
1
  6
Continuous
 62
     7
100
AcDbLine
 10
236.9559900388853
 20
-26.65441087950561
 30
0.0
 11
236.9559900388853
 21
18.84558912049439
 31
0.0
  0
LINE
  5
47
102
{ACAD_REACTORS
330
18A
330
18A
102
}
330
1F
100
AcDbEntity
  8
1
  6
Continuous
 62
     7
100
AcDbLine
 10
230.4559900388853
 20
-27.15441087950561
 30
0.0
 11
236.4559900388853
 21
-27.15441087950561
 31
0.0
  0
LINE
  5
48
102
{ACAD_REACTORS
330
18A
330
18A
102
}
330
1F
100
AcDbEntity
  8
1
  6
Continuous
 62
     7
100
AcDbLine
 10
229.9559900388853
 20
-18.65441087950561
 30
0.0
 11
229.9559900388853
 21
-26.65441087950561
 31
0.0
  0
LINE
  5
49
102
{ACAD_REACTORS
330
18A
330
18A
102
}
330
1F
100
AcDbEntity
  8
1
  6
Continuous
 62
     7
100
AcDbLine
 10
228.4559900388853
 20
-18.65441087950561
 30
0.0
 11
229.9559900388853
 21
-18.65441087950561
 31
0.0
  0
LINE
  5
4A
102
{ACAD_REACTORS
330
18A
330
18A
102
}
330
1F
100
AcDbEntity
  8
1
  6
Continuous
 62
     7
100
AcDbLine
 10
228.4559900388853
 20
-26.65441087950561
 30
0.0
 11
228.4559900388853
 21
-18.65441087950561
 31
0.0
  0
LINE
  5
4B
102
{ACAD_REACTORS
330
18A
330
18A
102
}
330
1F
100
AcDbEntity
  8
1
  6
Continuous
 62
     7
100
AcDbLine
 10
236.4559900388853
 20
-28.65441087950561
 30
0.0
 11
230.4559900388853
 21
-28.65441087950561
 31
0.0
  0
LINE
  5
4C
102
{ACAD_REACTORS
330
18A
330
18A
102
}
330
1F
100
AcDbEntity
  8
1
  6
Continuous
 62
     7
100
AcDbLine
 10
238.4559900388853
 20
18.84558912049439
 30
0.0
 11
238.4559900388853
 21
-26.65441087950561
 31
0.0
  0
LINE
  5
4D
102
{ACAD_REACTORS
330
18A
330
18A
102
}
330
1F
100
AcDbEntity
  8
1
  6
Continuous
 62
     7
100
AcDbLine
 10
220.7501130697414
 20
20.84558912049439
 30
0.0
 11
236.4559900388853
 21
20.84558912049439
 31
0.0
  0
LINE
  5
4E
102
{ACAD_REACTORS
330
18A
330
18A
102
}
330
1F
100
AcDbEntity
  8
1
  6
Continuous
 62
     7
100
AcDbLine
 10
217.9559900388853
 20
8.84558912049439
 30
0.0
 11
218.780497563717
 21
19.19288547582825
 31
0.0
  0
LINE
  5
4F
102
{ACAD_REACTORS
330
18A
330
18A
102
}
330
1F
100
AcDbEntity
  8
1
  6
Continuous
 62
     7
100
AcDbLine
 10
219.4332016684036
 20
8.58511685399399
 30
0.0
 11
217.9559900388853
 21
8.84558912049439
 31
0.0
  0
LINE
  5
50
102
{ACAD_REACTORS
330
18A
330
18A
102
}
330
1F
100
AcDbEntity
  8
1
  6
Continuous
 62
     7
100
AcDbLine
 10
220.2577091932353
 20
18.93241320932785
 30
0.0
 11
219.4332016684036
 21
8.58511685399399
 31
0.0
  0
LINE
  5
51
102
{ACAD_REACTORS
330
189
330
189
102
}
330
1F
100
AcDbEntity
  8
1
  6
Continuous
 62
     7
100
AcDbLine
 10
153.9559900388853
 20
34.8455891204944
 30
0.0
 11
153.9559900388853
 21
-0.1544108795056
 31
0.0
  0
LINE
  5
52
102
{ACAD_REACTORS
330
189
330
189
102
}
330
1F
100
AcDbEntity
  8
1
  6
Continuous
 62
     7
100
AcDbLine
 10
180.4559900388853
 20
35.3455891204944
 30
0.0
 11
154.4559900388853
 21
35.3455891204944
 31
0.0
  0
LINE
  5
53
102
{ACAD_REACTORS
330
189
330
189
102
}
330
1F
100
AcDbEntity
  8
1
  6
Continuous
 62
     7
100
AcDbLine
 10
180.9559900388853
 20
-0.1544108795056
 30
0.0
 11
180.9559900388853
 21
34.8455891204944
 31
0.0
  0
LINE
  5
54
102
{ACAD_REACTORS
330
189
330
189
102
}
330
1F
100
AcDbEntity
  8
1
  6
Continuous
 62
     7
100
AcDbLine
 10
154.4559900388853
 20
-0.6544108795056
 30
0.0
 11
180.4559900388853
 21
-0.6544108795056
 31
0.0
  0
LINE
  5
55
102
{ACAD_REACTORS
330
189
330
189
102
}
330
1F
100
AcDbEntity
  8
1
  6
Continuous
 62
     7
100
AcDbLine
 10
151.9559900388853
 20
34.8455891204944
 30
0.0
 11
151.9559900388853
 21
-0.1544108795056
 31
0.0
  0
LINE
  5
56
102
{ACAD_REACTORS
330
189
330
189
102
}
330
1F
100
AcDbEntity
  8
1
  6
Continuous
 62
     7
100
AcDbLine
 10
180.4559900388853
 20
37.3455891204944
 30
0.0
 11
154.4559900388853
 21
37.3455891204944
 31
0.0
  0
LINE
  5
57
102
{ACAD_REACTORS
330
189
330
189
102
}
330
1F
100
AcDbEntity
  8
1
  6
Continuous
 62
     7
100
AcDbLine
 10
182.9559900388853
 20
-0.1544108795056
 30
0.0
 11
182.9559900388853
 21
34.8455891204944
 31
0.0
  0
LINE
  5
58
102
{ACAD_REACTORS
330
189
330
189
102
}
330
1F
100
AcDbEntity
  8
1
  6
Continuous
 62
     7
100
AcDbLine
 10
154.4559900388853
 20
-2.6544108795056
 30
0.0
 11
180.4559900388853
 21
-2.6544108795056
 31
0.0
  0
LINE
  5
59
330
1F
100
AcDbEntity
  8
1
  6
Continuous
 62
     7
100
AcDbLine
 10
186.4559900388853
 20
37.8455891204944
 30
0.0
 11
192.4559900388853
 21
37.84558912049438
 31
0.0
  0
LINE
  5
5A
330
1F
100
AcDbEntity
  8
1
  6
Continuous
 62
     7
100
AcDbLine
 10
186.4559900388853
 20
33.84558912049438
 30
0.0
 11
186.4559900388853
 21
37.8455891204944
 31
0.0
  0
LINE
  5
5B
330
1F
100
AcDbEntity
  8
1
  6
Continuous
 62
     7
100
AcDbLine
 10
184.9559900388853
 20
33.84558912049438
 30
0.0
 11
186.4559900388853
 21
33.84558912049438
 31
0.0
  0
LINE
  5
5C
330
1F
100
AcDbEntity
  8
1
  6
Continuous
 62
     7
100
AcDbLine
 10
184.9559900388853
 20
37.8455891204944
 30
0.0
 11
184.9559900388853
 21
33.84558912049438
 31
0.0
  0
LINE
  5
5D
330
1F
100
AcDbEntity
  8
1
  6
Continuous
 62
     7
100
AcDbLine
 10
200.4559900388853
 20
39.34558912049438
 30
0.0
 11
209.1343612178171
 21
39.34558912049439
 31
0.0
  0
LINE
  5
5E
330
1F
100
AcDbEntity
  8
1
  6
Continuous
 62
     7
100
AcDbLine
 10
200.4559900388853
 20
45.84558912049437
 30
0.0
 11
200.4559900388853
 21
39.34558912049438
 31
0.0
  0
LINE
  5
5F
330
1F
100
AcDbEntity
  8
1
  6
Continuous
 62
     7
100
AcDbLine
 10
213.8418865372238
 20
45.84558912049437
 30
0.0
 11
200.4559900388853
 21
45.84558912049437
 31
0.0
  0
LINE
  5
60
330
1F
100
AcDbEntity
  8
1
  6
Continuous
 62
     7
100
AcDbLine
 10
195.4559900388853
 20
36.34558912049438
 30
0.0
 11
211.3930106645831
 21
36.34558912049439
 31
0.0
  0
LINE
  5
61
330
1F
100
AcDbEntity
  8
1
  6
Continuous
 62
     7
100
AcDbLine
 10
195.4559900388853
 20
14.34558912049439
 30
0.0
 11
195.4559900388853
 21
36.34558912049438
 31
0.0
  0
LINE
  5
62
330
1F
100
AcDbEntity
  8
1
  6
Continuous
 62
     7
100
AcDbLine
 10
192.4559900388853
 20
37.84558912049438
 30
0.0
 11
192.4559900388853
 21
14.34558912049439
 31
0.0
  0
LINE
  5
63
330
1F
100
AcDbEntity
  8
1
  6
Continuous
 62
     7
100
AcDbLine
 10
150.9559900388853
 20
37.8455891204944
 30
0.0
 11
184.9559900388853
 21
37.8455891204944
 31
0.0
  0
LINE
  5
64
330
1F
100
AcDbEntity
  8
1
  6
Continuous
 62
     7
100
AcDbLine
 10
150.9559900388853
 20
37.8455891204944
 30
0.0
 11
150.9559900388853
 21
-3.1544108795056
 31
0.0
  0
LINE
  5
65
330
1F
100
AcDbEntity
  8
1
  6
Continuous
 62
     7
100
AcDbLine
 10
168.9559900388853
 20
45.84558912049437
 30
0.0
 11
168.9559900388853
 21
39.3455891204944
 31
0.0
  0
LINE
  5
66
330
1F
100
AcDbEntity
  8
1
  6
Continuous
 62
     7
100
AcDbLine
 10
198.9559900388853
 20
45.84558912049437
 30
0.0
 11
168.9559900388853
 21
45.84558912049437
 31
0.0
  0
LINE
  5
67
330
1F
100
AcDbEntity
  8
1
  6
Continuous
 62
     7
100
AcDbLine
 10
198.9559900388853
 20
39.3455891204944
 30
0.0
 11
198.9559900388853
 21
45.84558912049437
 31
0.0
  0
LINE
  5
68
330
1F
100
AcDbEntity
  8
1
  6
Continuous
 62
     7
100
AcDbLine
 10
168.9559900388853
 20
39.3455891204944
 30
0.0
 11
198.9559900388853
 21
39.3455891204944
 31
0.0
  0
LINE
  5
69
330
1F
100
AcDbEntity
  8
1
  6
Continuous
 62
     7
100
AcDbLine
 10
150.9559900388853
 20
45.84558912049437
 30
0.0
 11
150.9559900388853
 21
39.3455891204944
 31
0.0
  0
LINE
  5
6A
330
1F
100
AcDbEntity
  8
1
  6
Continuous
 62
     7
100
AcDbLine
 10
167.4559900388853
 20
45.84558912049437
 30
0.0
 11
150.9559900388853
 21
45.84558912049437
 31
0.0
  0
LINE
  5
6B
330
1F
100
AcDbEntity
  8
1
  6
Continuous
 62
     7
100
AcDbLine
 10
167.4559900388853
 20
39.3455891204944
 30
0.0
 11
167.4559900388853
 21
45.84558912049437
 31
0.0
  0
LINE
  5
6C
330
1F
100
AcDbEntity
  8
1
  6
Continuous
 62
     7
100
AcDbLine
 10
150.9559900388853
 20
39.3455891204944
 30
0.0
 11
167.4559900388853
 21
39.3455891204944
 31
0.0
  0
LINE
  5
6D
330
1F
100
AcDbEntity
  8
1
  6
Continuous
 62
     7
100
AcDbLine
 10
147.9559900388853
 20
48.8455891204944
 30
0.0
 11
215.3478201968263
 21
48.84558912049437
 31
0.0
  0
LINE
  5
6E
330
1F
100
AcDbEntity
  8
1
  6
Continuous
 62
     7
100
AcDbLine
 10
215.1476019761417
 20
36.34558912049439
 30
0.0
 11
218.1409815969794
 21
36.34558912049439
 31
0.0
  0
LINE
  5
6F
330
1F
100
AcDbEntity
  8
1
  6
Continuous
 62
     7
100
AcDbLine
 10
215.1476019761417
 20
37.84558912049439
 30
0.0
 11
215.1476019761417
 21
36.34558912049439
 31
0.0
  0
LINE
  5
70
330
1F
100
AcDbEntity
  8
1
  6
Continuous
 62
     7
100
AcDbLine
 10
216.1476019761417
 20
37.84558912049439
 30
0.0
 11
215.1476019761417
 21
37.84558912049439
 31
0.0
  0
LINE
  5
71
330
1F
100
AcDbEntity
  8
1
  6
Continuous
 62
     7
100
AcDbLine
 10
215.2829586865475
 20
40.84558912049437
 30
0.0
 11
216.1476019761417
 21
37.84558912049439
 31
0.0
  0
LINE
  5
72
330
1F
100
AcDbEntity
  8
1
  6
Continuous
 62
     7
100
AcDbLine
 10
210.9219916067085
 20
40.84558912049437
 30
0.0
 11
215.2829586865475
 21
40.84558912049437
 31
0.0
  0
LINE
  5
73
330
1F
100
AcDbEntity
  8
1
  6
Continuous
 62
     7
100
AcDbLine
 10
210.3930106645831
 20
37.84558912049439
 30
0.0
 11
210.9219916067085
 21
40.84558912049437
 31
0.0
  0
LINE
  5
74
330
1F
100
AcDbEntity
  8
1
  6
Continuous
 62
     7
100
AcDbLine
 10
211.3930106645831
 20
37.84558912049439
 30
0.0
 11
210.3930106645831
 21
37.84558912049439
 31
0.0
  0
LINE
  5
75
330
1F
100
AcDbEntity
  8
1
  6
Continuous
 62
     7
100
AcDbLine
 10
211.3930106645831
 20
36.34558912049439
 30
0.0
 11
211.3930106645831
 21
37.84558912049439
 31
0.0
  0
LINE
  5
76
330
1F
100
AcDbEntity
  8
1
  6
Continuous
 62
     7
100
AcDbLine
 10
218.4853249404285
 20
35.15084205800086
 30
0.0
 11
218.1409815969794
 21
36.34558912049439
 31
0.0
  0
LINE
  5
77
330
1F
100
AcDbEntity
  8
1
  6
Continuous
 62
     7
100
AcDbLine
 10
214.8506370417504
 20
42.34558912049437
 30
0.0
 11
213.8418865372238
 21
45.84558912049437
 31
0.0
  0
LINE
  5
78
330
1F
100
AcDbEntity
  8
1
  6
Continuous
 62
     7
100
AcDbLine
 10
210.5024417911198
 20
42.34558912049437
 30
0.0
 11
214.8506370417504
 21
42.34558912049437
 31
0.0
  0
LINE
  5
79
330
1F
100
AcDbEntity
  8
1
  6
Continuous
 62
     7
100
AcDbLine
 10
209.1343612178171
 20
39.34558912049439
 30
0.0
 11
209.5176340381076
 21
41.5192372981613
 31
0.0
  0
LINE
  5
7A
330
1F
100
AcDbEntity
  8
1
  6
Continuous
 62
     7
100
AcDbLine
 10
216.319670302515
 20
48.08118914611588
 30
0.0
 11
219.926655137342
 21
35.56625421895111
 31
0.0
  0
LINE
  5
7B
330
1F
100
AcDbEntity
  8
1
  6
Continuous
 62
     7
100
AcDbLine
 10
147.9559900388853
 20
17.3455891204944
 30
0.0
 11
147.9559900388853
 21
36.84558912049438
 31
0.0
  0
LINE
  5
7C
330
1F
100
AcDbEntity
  8
1
  6
Continuous
 62
     7
100
AcDbLine
 10
144.9559900388853
 20
17.3455891204944
 30
0.0
 11
147.9559900388853
 21
17.3455891204944
 31
0.0
  0
LINE
  5
7D
330
1F
100
AcDbEntity
  8
1
  6
Continuous
 62
     7
100
AcDbLine
 10
144.9559900388853
 20
19.8455891204944
 30
0.0
 11
144.9559900388853
 21
17.3455891204944
 31
0.0
  0
LINE
  5
7E
330
1F
100
AcDbEntity
  8
1
  6
Continuous
 62
     7
100
AcDbLine
 10
144.4559900388853
 20
19.8455891204944
 30
0.0
 11
144.9559900388853
 21
19.8455891204944
 31
0.0
  0
LINE
  5
7F
330
1F
100
AcDbEntity
  8
1
  6
Continuous
 62
     7
100
AcDbLine
 10
142.9559900388853
 20
18.3455891204944
 30
0.0
 11
144.4559900388853
 21
19.8455891204944
 31
0.0
  0
LINE
  5
80
330
1F
100
AcDbEntity
  8
1
  6
Continuous
 62
     7
100
AcDbLine
 10
142.9559900388853
 20
14.3455891204944
 30
0.0
 11
142.9559900388853
 21
18.3455891204944
 31
0.0
  0
LINE
  5
81
330
1F
100
AcDbEntity
  8
1
  6
Continuous
 62
     7
100
AcDbLine
 10
144.4559900388853
 20
12.8455891204944
 30
0.0
 11
142.9559900388853
 21
14.3455891204944
 31
0.0
  0
LINE
  5
82
330
1F
100
AcDbEntity
  8
1
  6
Continuous
 62
     7
100
AcDbLine
 10
144.9559900388853
 20
12.8455891204944
 30
0.0
 11
144.4559900388853
 21
12.8455891204944
 31
0.0
  0
LINE
  5
83
330
1F
100
AcDbEntity
  8
1
  6
Continuous
 62
     7
100
AcDbLine
 10
144.9559900388853
 20
15.3455891204944
 30
0.0
 11
144.9559900388853
 21
12.8455891204944
 31
0.0
  0
LINE
  5
84
330
1F
100
AcDbEntity
  8
1
  6
Continuous
 62
     7
100
AcDbLine
 10
147.9559900388853
 20
15.3455891204944
 30
0.0
 11
144.9559900388853
 21
15.3455891204944
 31
0.0
  0
LINE
  5
85
330
1F
100
AcDbEntity
  8
1
  6
Continuous
 62
     7
100
AcDbLine
 10
147.9559900388853
 20
-4.1544108795056
 30
0.0
 11
147.9559900388853
 21
15.3455891204944
 31
0.0
  0
LINE
  5
86
330
1F
100
AcDbEntity
  8
1
  6
Continuous
 62
     7
100
AcDbLine
 10
147.9559900388853
 20
38.84558912049438
 30
0.0
 11
147.9559900388853
 21
40.84558912049438
 31
0.0
  0
LINE
  5
87
330
1F
100
AcDbEntity
  8
1
  6
Continuous
 62
     7
100
AcDbLine
 10
147.9559900388853
 20
40.84558912049438
 30
0.0
 11
148.4559900388853
 21
41.34558912049438
 31
0.0
  0
LINE
  5
88
330
1F
100
AcDbEntity
  8
1
  6
Continuous
 62
     7
100
AcDbLine
 10
148.4559900388853
 20
41.34558912049438
 30
0.0
 11
147.9559900388853
 21
41.84558912049438
 31
0.0
  0
LINE
  5
89
330
1F
100
AcDbEntity
  8
1
  6
Continuous
 62
     7
100
AcDbLine
 10
147.9559900388853
 20
41.84558912049438
 30
0.0
 11
148.4559900388853
 21
42.34558912049438
 31
0.0
  0
LINE
  5
8A
330
1F
100
AcDbEntity
  8
1
  6
Continuous
 62
     7
100
AcDbLine
 10
148.4559900388853
 20
42.34558912049438
 30
0.0
 11
147.9559900388853
 21
42.84558912049438
 31
0.0
  0
LINE
  5
8B
330
1F
100
AcDbEntity
  8
1
  6
Continuous
 62
     7
100
AcDbLine
 10
147.9559900388853
 20
42.84558912049438
 30
0.0
 11
148.4559900388853
 21
43.34558912049438
 31
0.0
  0
LINE
  5
8C
330
1F
100
AcDbEntity
  8
1
  6
Continuous
 62
     7
100
AcDbLine
 10
148.4559900388853
 20
43.34558912049438
 30
0.0
 11
147.9559900388853
 21
43.84558912049438
 31
0.0
  0
LINE
  5
8D
330
1F
100
AcDbEntity
  8
1
  6
Continuous
 62
     7
100
AcDbLine
 10
147.9559900388853
 20
43.84558912049438
 30
0.0
 11
148.4559900388853
 21
44.34558912049438
 31
0.0
  0
LINE
  5
8E
330
1F
100
AcDbEntity
  8
1
  6
Continuous
 62
     7
100
AcDbLine
 10
148.4559900388853
 20
44.34558912049438
 30
0.0
 11
147.9559900388853
 21
44.84558912049438
 31
0.0
  0
LINE
  5
8F
330
1F
100
AcDbEntity
  8
1
  6
Continuous
 62
     7
100
AcDbLine
 10
147.9559900388853
 20
44.84558912049438
 30
0.0
 11
148.4559900388853
 21
45.34558912049438
 31
0.0
  0
LINE
  5
90
330
1F
100
AcDbEntity
  8
1
  6
Continuous
 62
     7
100
AcDbLine
 10
148.4559900388853
 20
45.34558912049438
 30
0.0
 11
147.9559900388853
 21
45.84558912049438
 31
0.0
  0
LINE
  5
91
330
1F
100
AcDbEntity
  8
1
  6
Continuous
 62
     7
100
AcDbLine
 10
144.9559900388853
 20
42.84558912049438
 30
0.0
 11
144.4559900388853
 21
43.34558912049438
 31
0.0
  0
LINE
  5
92
330
1F
100
AcDbEntity
  8
1
  6
Continuous
 62
     7
100
AcDbLine
 10
144.4559900388853
 20
43.34558912049438
 30
0.0
 11
144.4559900388853
 21
44.34558912049438
 31
0.0
  0
LINE
  5
93
330
1F
100
AcDbEntity
  8
1
  6
Continuous
 62
     7
100
AcDbLine
 10
144.4559900388853
 20
44.34558912049438
 30
0.0
 11
145.4559900388853
 21
44.34558912049438
 31
0.0
  0
LINE
  5
94
330
1F
100
AcDbEntity
  8
1
  6
Continuous
 62
     7
100
AcDbLine
 10
145.4559900388853
 20
44.34558912049438
 30
0.0
 11
145.4559900388853
 21
45.34558912049438
 31
0.0
  0
LINE
  5
95
330
1F
100
AcDbEntity
  8
1
  6
Continuous
 62
     7
100
AcDbLine
 10
144.4559900388853
 20
46.34558912049438
 30
0.0
 11
145.4559900388853
 21
45.34558912049438
 31
0.0
  0
LINE
  5
96
330
1F
100
AcDbEntity
  8
1
  6
Continuous
 62
     7
100
AcDbLine
 10
142.9559900388853
 20
46.34558912049438
 30
0.0
 11
144.4559900388853
 21
46.34558912049438
 31
0.0
  0
LINE
  5
97
330
1F
100
AcDbEntity
  8
1
  6
Continuous
 62
     7
100
AcDbLine
 10
144.9559900388853
 20
34.34558912049438
 30
0.0
 11
144.4559900388853
 21
34.34558912049438
 31
0.0
  0
LINE
  5
98
330
1F
100
AcDbEntity
  8
1
  6
Continuous
 62
     7
100
AcDbLine
 10
142.9559900388853
 20
35.84558912049438
 30
0.0
 11
144.4559900388853
 21
34.34558912049438
 31
0.0
  0
LINE
  5
99
330
1F
100
AcDbEntity
  8
1
  6
Continuous
 62
     7
100
AcDbLine
 10
147.9559900388853
 20
36.84558912049438
 30
0.0
 11
144.9559900388853
 21
36.84558912049438
 31
0.0
  0
LINE
  5
9A
330
1F
100
AcDbEntity
  8
1
  6
Continuous
 62
     7
100
AcDbLine
 10
144.9559900388853
 20
36.84558912049438
 30
0.0
 11
144.9559900388853
 21
34.34558912049438
 31
0.0
  0
LINE
  5
9B
330
1F
100
AcDbEntity
  8
1
  6
Continuous
 62
     7
100
AcDbLine
 10
142.9559900388853
 20
35.84558912049438
 30
0.0
 11
142.9559900388853
 21
46.34558912049438
 31
0.0
  0
LINE
  5
9C
330
1F
100
AcDbEntity
  8
1
  6
Continuous
 62
     7
100
AcDbLine
 10
144.9559900388853
 20
42.84558912049438
 30
0.0
 11
144.9559900388853
 21
38.84558912049438
 31
0.0
  0
LINE
  5
9D
330
1F
100
AcDbEntity
  8
1
  6
Continuous
 62
     7
100
AcDbLine
 10
144.9559900388853
 20
38.84558912049438
 30
0.0
 11
147.9559900388853
 21
38.84558912049438
 31
0.0
  0
LINE
  5
9E
330
1F
100
AcDbEntity
  8
1
  6
Continuous
 62
     7
100
AcDbLine
 10
147.9559900388853
 20
45.84558912049438
 30
0.0
 11
147.9559900388853
 21
48.8455891204944
 31
0.0
  0
LINE
  5
9F
330
1F
100
AcDbEntity
  8
1
  6
Continuous
 62
     7
100
AcDbLine
 10
147.9559900388853
 20
-8.1544108795056
 30
0.0
 11
147.9559900388853
 21
-6.1544108795056
 31
0.0
  0
LINE
  5
A0
330
1F
100
AcDbEntity
  8
1
  6
Continuous
 62
     7
100
AcDbLine
 10
148.4559900388853
 20
-8.6544108795056
 30
0.0
 11
147.9559900388853
 21
-8.1544108795056
 31
0.0
  0
LINE
  5
A1
330
1F
100
AcDbEntity
  8
1
  6
Continuous
 62
     7
100
AcDbLine
 10
147.9559900388853
 20
-9.1544108795056
 30
0.0
 11
148.4559900388853
 21
-8.6544108795056
 31
0.0
  0
LINE
  5
A2
330
1F
100
AcDbEntity
  8
1
  6
Continuous
 62
     7
100
AcDbLine
 10
148.4559900388853
 20
-9.6544108795056
 30
0.0
 11
147.9559900388853
 21
-9.1544108795056
 31
0.0
  0
LINE
  5
A3
330
1F
100
AcDbEntity
  8
1
  6
Continuous
 62
     7
100
AcDbLine
 10
147.9559900388853
 20
-10.1544108795056
 30
0.0
 11
148.4559900388853
 21
-9.6544108795056
 31
0.0
  0
LINE
  5
A4
330
1F
100
AcDbEntity
  8
1
  6
Continuous
 62
     7
100
AcDbLine
 10
148.4559900388853
 20
-10.6544108795056
 30
0.0
 11
147.9559900388853
 21
-10.1544108795056
 31
0.0
  0
LINE
  5
A5
330
1F
100
AcDbEntity
  8
1
  6
Continuous
 62
     7
100
AcDbLine
 10
147.9559900388853
 20
-11.1544108795056
 30
0.0
 11
148.4559900388853
 21
-10.6544108795056
 31
0.0
  0
LINE
  5
A6
330
1F
100
AcDbEntity
  8
1
  6
Continuous
 62
     7
100
AcDbLine
 10
148.4559900388853
 20
-11.6544108795056
 30
0.0
 11
147.9559900388853
 21
-11.1544108795056
 31
0.0
  0
LINE
  5
A7
330
1F
100
AcDbEntity
  8
1
  6
Continuous
 62
     7
100
AcDbLine
 10
147.9559900388853
 20
-12.1544108795056
 30
0.0
 11
148.4559900388853
 21
-11.6544108795056
 31
0.0
  0
LINE
  5
A8
330
1F
100
AcDbEntity
  8
1
  6
Continuous
 62
     7
100
AcDbLine
 10
148.4559900388853
 20
-12.6544108795056
 30
0.0
 11
147.9559900388853
 21
-12.1544108795056
 31
0.0
  0
LINE
  5
A9
330
1F
100
AcDbEntity
  8
1
  6
Continuous
 62
     7
100
AcDbLine
 10
147.9559900388853
 20
-13.1544108795056
 30
0.0
 11
148.4559900388853
 21
-12.6544108795056
 31
0.0
  0
LINE
  5
AA
330
1F
100
AcDbEntity
  8
1
  6
Continuous
 62
     7
100
AcDbLine
 10
144.4559900388853
 20
-10.6544108795056
 30
0.0
 11
144.9559900388853
 21
-10.1544108795056
 31
0.0
  0
LINE
  5
AB
330
1F
100
AcDbEntity
  8
1
  6
Continuous
 62
     7
100
AcDbLine
 10
144.4559900388853
 20
-11.6544108795056
 30
0.0
 11
144.4559900388853
 21
-10.6544108795056
 31
0.0
  0
LINE
  5
AC
330
1F
100
AcDbEntity
  8
1
  6
Continuous
 62
     7
100
AcDbLine
 10
145.4559900388853
 20
-11.6544108795056
 30
0.0
 11
144.4559900388853
 21
-11.6544108795056
 31
0.0
  0
LINE
  5
AD
330
1F
100
AcDbEntity
  8
1
  6
Continuous
 62
     7
100
AcDbLine
 10
145.4559900388853
 20
-12.6544108795056
 30
0.0
 11
145.4559900388853
 21
-11.6544108795056
 31
0.0
  0
LINE
  5
AE
330
1F
100
AcDbEntity
  8
1
  6
Continuous
 62
     7
100
AcDbLine
 10
145.4559900388853
 20
-12.6544108795056
 30
0.0
 11
144.4559900388853
 21
-13.6544108795056
 31
0.0
  0
LINE
  5
AF
330
1F
100
AcDbEntity
  8
1
  6
Continuous
 62
     7
100
AcDbLine
 10
144.4559900388853
 20
-13.6544108795056
 30
0.0
 11
142.9559900388853
 21
-13.6544108795056
 31
0.0
  0
LINE
  5
B0
330
1F
100
AcDbEntity
  8
1
  6
Continuous
 62
     7
100
AcDbLine
 10
144.4559900388853
 20
-1.6544108795056
 30
0.0
 11
144.9559900388853
 21
-1.6544108795056
 31
0.0
  0
LINE
  5
B1
330
1F
100
AcDbEntity
  8
1
  6
Continuous
 62
     7
100
AcDbLine
 10
144.4559900388853
 20
-1.6544108795056
 30
0.0
 11
142.9559900388853
 21
-3.1544108795056
 31
0.0
  0
LINE
  5
B2
330
1F
100
AcDbEntity
  8
1
  6
Continuous
 62
     7
100
AcDbLine
 10
144.9559900388853
 20
-4.1544108795056
 30
0.0
 11
147.9559900388853
 21
-4.1544108795056
 31
0.0
  0
LINE
  5
B3
330
1F
100
AcDbEntity
  8
1
  6
Continuous
 62
     7
100
AcDbLine
 10
144.9559900388853
 20
-1.6544108795056
 30
0.0
 11
144.9559900388853
 21
-4.1544108795056
 31
0.0
  0
LINE
  5
B4
330
1F
100
AcDbEntity
  8
1
  6
Continuous
 62
     7
100
AcDbLine
 10
142.9559900388853
 20
-13.6544108795056
 30
0.0
 11
142.9559900388853
 21
-3.1544108795056
 31
0.0
  0
LINE
  5
B5
330
1F
100
AcDbEntity
  8
1
  6
Continuous
 62
     7
100
AcDbLine
 10
144.9559900388853
 20
-6.1544108795056
 30
0.0
 11
144.9559900388853
 21
-10.1544108795056
 31
0.0
  0
LINE
  5
B6
330
1F
100
AcDbEntity
  8
1
  6
Continuous
 62
     7
100
AcDbLine
 10
147.9559900388853
 20
-6.1544108795056
 30
0.0
 11
144.9559900388853
 21
-6.1544108795056
 31
0.0
  0
LINE
  5
B7
330
1F
100
AcDbEntity
  8
1
  6
Continuous
 62
     7
100
AcDbLine
 10
147.9559900388853
 20
-16.1544108795056
 30
0.0
 11
147.9559900388853
 21
-13.1544108795056
 31
0.0
  0
LINE
  5
B8
330
1F
100
AcDbEntity
  8
1
  6
Continuous
 62
     7
100
AcDbLine
 10
150.9559900388853
 20
-3.1544108795056
 30
0.0
 11
183.9559900388853
 21
-3.15441087950561
 31
0.0
  0
LINE
  5
B9
330
1F
100
AcDbEntity
  8
1
  6
Continuous
 62
     7
100
AcDbLine
 10
206.9559900388853
 20
13.34558912049438
 30
0.0
 11
206.9559900388853
 21
11.34558912049439
 31
0.0
  0
LINE
  5
BA
330
1F
100
AcDbEntity
  8
1
  6
Continuous
 62
     7
100
AcDbLine
 10
195.4559900388853
 20
14.34558912049439
 30
0.0
 11
206.9559900388853
 21
13.34558912049438
 31
0.0
  0
LINE
  5
BB
330
1F
100
AcDbEntity
  8
1
  6
Continuous
 62
     7
100
AcDbLine
 10
186.9559900388853
 20
14.34558912049439
 30
0.0
 11
192.4559900388853
 21
14.34558912049439
 31
0.0
  0
LINE
  5
BC
330
1F
100
AcDbEntity
  8
1
  6
Continuous
 62
     7
100
AcDbLine
 10
183.9559900388853
 20
-3.15441087950561
 30
0.0
 11
183.9559900388853
 21
11.34558912049439
 31
0.0
  0
LINE
  5
BD
330
1F
100
AcDbEntity
  8
1
  6
Continuous
 62
     7
100
AcDbLine
 10
186.9559900388853
 20
11.34558912049439
 30
0.0
 11
206.9559900388853
 21
11.34558912049439
 31
0.0
  0
LINE
  5
BE
330
1F
100
AcDbEntity
  8
1
  6
Continuous
 62
     7
100
AcDbLine
 10
183.9559900388853
 20
-10.65441087950561
 30
0.0
 11
183.9559900388853
 21
-13.1544108795056
 31
0.0
  0
LINE
  5
BF
330
1F
100
AcDbEntity
  8
1
  6
Continuous
 62
     7
100
AcDbLine
 10
180.9559900388853
 20
-9.15441087950561
 30
0.0
 11
183.9559900388853
 21
-10.65441087950561
 31
0.0
  0
LINE
  5
C0
330
1F
100
AcDbEntity
  8
1
  6
Continuous
 62
     7
100
AcDbLine
 10
180.9559900388853
 20
-8.15441087950561
 30
0.0
 11
180.9559900388853
 21
-9.15441087950561
 31
0.0
  0
LINE
  5
C1
330
1F
100
AcDbEntity
  8
1
  6
Continuous
 62
     7
100
AcDbLine
 10
183.9559900388853
 20
-8.15441087950561
 30
0.0
 11
180.9559900388853
 21
-8.15441087950561
 31
0.0
  0
LINE
  5
C2
330
1F
100
AcDbEntity
  8
1
  6
Continuous
 62
     7
100
AcDbLine
 10
182.4559900388853
 20
-4.65441087950561
 30
0.0
 11
183.9559900388853
 21
-4.65441087950561
 31
0.0
  0
LINE
  5
C3
330
1F
100
AcDbEntity
  8
1
  6
Continuous
 62
     7
100
AcDbLine
 10
182.4559900388853
 20
-6.15441087950561
 30
0.0
 11
182.4559900388853
 21
-4.65441087950561
 31
0.0
  0
LINE
  5
C4
330
1F
100
AcDbEntity
  8
1
  6
Continuous
 62
     7
100
AcDbLine
 10
180.9559900388853
 20
-6.15441087950561
 30
0.0
 11
182.4559900388853
 21
-6.15441087950561
 31
0.0
  0
LINE
  5
C5
330
1F
100
AcDbEntity
  8
1
  6
Continuous
 62
     7
100
AcDbLine
 10
180.9559900388853
 20
-4.65441087950561
 30
0.0
 11
180.9559900388853
 21
-6.15441087950561
 31
0.0
  0
LINE
  5
C6
330
1F
100
AcDbEntity
  8
1
  6
Continuous
 62
     7
100
AcDbLine
 10
183.9559900388853
 20
-4.65441087950561
 30
0.0
 11
183.9559900388853
 21
-8.15441087950561
 31
0.0
  0
LINE
  5
C7
330
1F
100
AcDbEntity
  8
1
  6
Continuous
 62
     7
100
AcDbLine
 10
150.9559900388853
 20
-4.6544108795056
 30
0.0
 11
180.9559900388853
 21
-4.65441087950561
 31
0.0
  0
LINE
  5
C8
330
1F
100
AcDbEntity
  8
1
  6
Continuous
 62
     7
100
AcDbLine
 10
150.9559900388853
 20
-13.1544108795056
 30
0.0
 11
150.9559900388853
 21
-4.6544108795056
 31
0.0
  0
LINE
  5
C9
330
1F
100
AcDbEntity
  8
1
  6
Continuous
 62
     7
100
AcDbLine
 10
150.9559900388853
 20
-13.1544108795056
 30
0.0
 11
183.9559900388853
 21
-13.1544108795056
 31
0.0
  0
LINE
  5
CA
330
1F
100
AcDbEntity
  8
1
  6
Continuous
 62
     7
100
AcDbLine
 10
186.9559900388853
 20
11.34558912049439
 30
0.0
 11
186.9559900388853
 21
-14.15441087950561
 31
0.0
  0
LINE
  5
CB
330
1F
100
AcDbEntity
  8
1
  6
Continuous
 62
     7
100
AcDbLine
 10
189.9559900388853
 20
-14.15441087950561
 30
0.0
 11
186.9559900388853
 21
-14.15441087950561
 31
0.0
  0
LINE
  5
CC
330
1F
100
AcDbEntity
  8
1
  6
Continuous
 62
     7
100
AcDbLine
 10
189.9559900388853
 20
-12.65441087950561
 30
0.0
 11
189.9559900388853
 21
-14.15441087950561
 31
0.0
  0
LINE
  5
CD
330
1F
100
AcDbEntity
  8
1
  6
Continuous
 62
     7
100
AcDbLine
 10
191.9559900388853
 20
-12.65441087950561
 30
0.0
 11
189.9559900388853
 21
-12.65441087950561
 31
0.0
  0
LINE
  5
CE
330
1F
100
AcDbEntity
  8
1
  6
Continuous
 62
     7
100
AcDbLine
 10
191.9559900388853
 20
-16.15441087950561
 30
0.0
 11
191.9559900388853
 21
-12.65441087950561
 31
0.0
  0
LINE
  5
CF
330
1F
100
AcDbEntity
  8
1
  6
Continuous
 62
     7
100
AcDbLine
 10
244.9559900388853
 20
13.84558912049437
 30
0.0
 11
246.9559900388853
 21
11.84558912049437
 31
0.0
  0
LINE
  5
D0
330
1F
100
AcDbEntity
  8
1
  6
Continuous
 62
     7
100
AcDbLine
 10
244.9559900388853
 20
12.84558912049437
 30
0.0
 11
244.9559900388853
 21
13.84558912049437
 31
0.0
  0
LINE
  5
D1
330
1F
100
AcDbEntity
  8
1
  6
Continuous
 62
     7
100
AcDbLine
 10
241.9559900388853
 20
12.84558912049437
 30
0.0
 11
244.9559900388853
 21
12.84558912049437
 31
0.0
  0
LINE
  5
D2
330
1F
100
AcDbEntity
  8
1
  6
Continuous
 62
     7
100
AcDbLine
 10
262.1476019761417
 20
36.34558912049439
 30
0.0
 11
265.1409815969794
 21
36.34558912049439
 31
0.0
  0
LINE
  5
D3
330
1F
100
AcDbEntity
  8
1
  6
Continuous
 62
     7
100
AcDbLine
 10
262.1476019761417
 20
37.84558912049439
 30
0.0
 11
262.1476019761417
 21
36.34558912049439
 31
0.0
  0
LINE
  5
D4
330
1F
100
AcDbEntity
  8
1
  6
Continuous
 62
     7
100
AcDbLine
 10
263.1476019761417
 20
37.84558912049439
 30
0.0
 11
262.1476019761417
 21
37.84558912049439
 31
0.0
  0
LINE
  5
D5
330
1F
100
AcDbEntity
  8
1
  6
Continuous
 62
     7
100
AcDbLine
 10
262.2829586865475
 20
40.84558912049437
 30
0.0
 11
263.1476019761417
 21
37.84558912049439
 31
0.0
  0
LINE
  5
D6
330
1F
100
AcDbEntity
  8
1
  6
Continuous
 62
     7
100
AcDbLine
 10
257.9219916067085
 20
40.84558912049437
 30
0.0
 11
262.2829586865475
 21
40.84558912049437
 31
0.0
  0
LINE
  5
D7
330
1F
100
AcDbEntity
  8
1
  6
Continuous
 62
     7
100
AcDbLine
 10
257.3930106645831
 20
37.84558912049439
 30
0.0
 11
257.9219916067085
 21
40.84558912049437
 31
0.0
  0
LINE
  5
D8
330
1F
100
AcDbEntity
  8
1
  6
Continuous
 62
     7
100
AcDbLine
 10
258.3930106645831
 20
37.84558912049439
 30
0.0
 11
257.3930106645831
 21
37.84558912049439
 31
0.0
  0
LINE
  5
D9
330
1F
100
AcDbEntity
  8
1
  6
Continuous
 62
     7
100
AcDbLine
 10
258.3930106645831
 20
36.34558912049439
 30
0.0
 11
258.3930106645831
 21
37.84558912049439
 31
0.0
  0
LINE
  5
DA
330
1F
100
AcDbEntity
  8
1
  6
Continuous
 62
     7
100
AcDbLine
 10
243.9559900388853
 20
36.34558912049439
 30
0.0
 11
258.3930106645831
 21
36.34558912049439
 31
0.0
  0
LINE
  5
DB
330
1F
100
AcDbEntity
  8
1
  6
Continuous
 62
     7
100
AcDbLine
 10
265.4853249404285
 20
35.15084205800086
 30
0.0
 11
265.1409815969794
 21
36.34558912049439
 31
0.0
  0
LINE
  5
DC
330
1F
100
AcDbEntity
  8
1
  6
Continuous
 62
     7
100
AcDbLine
 10
261.8506370417504
 20
42.34558912049437
 30
0.0
 11
260.8418865372238
 21
45.84558912049437
 31
0.0
  0
LINE
  5
DD
330
1F
100
AcDbEntity
  8
1
  6
Continuous
 62
     7
100
AcDbLine
 10
257.5024417911199
 20
42.34558912049437
 30
0.0
 11
261.8506370417504
 21
42.34558912049437
 31
0.0
  0
LINE
  5
DE
330
1F
100
AcDbEntity
  8
1
  6
Continuous
 62
     7
100
AcDbLine
 10
256.1343612178172
 20
39.34558912049439
 30
0.0
 11
256.5176340381076
 21
41.5192372981613
 31
0.0
  0
LINE
  5
DF
330
1F
100
AcDbEntity
  8
1
  6
Continuous
 62
     7
100
AcDbLine
 10
245.4559900388853
 20
39.3455891204944
 30
0.0
 11
256.1343612178172
 21
39.34558912049439
 31
0.0
  0
LINE
  5
E0
330
1F
100
AcDbEntity
  8
1
  6
Continuous
 62
     7
100
AcDbLine
 10
241.9559900388853
 20
36.34558912049439
 30
0.0
 11
241.9559900388853
 21
12.84558912049437
 31
0.0
  0
LINE
  5
E1
330
1F
100
AcDbEntity
  8
1
  6
Continuous
 62
     7
100
AcDbLine
 10
238.9559900388853
 20
36.453777033396
 30
0.0
 11
238.9559900388853
 21
32.84558912049439
 31
0.0
  0
LINE
  5
E2
330
1F
100
AcDbEntity
  8
1
  6
Continuous
 62
     7
100
AcDbLine
 10
246.9559900388853
 20
-7.65441087950563
 30
0.0
 11
246.9559900388853
 21
11.84558912049437
 31
0.0
  0
LINE
  5
E3
330
1F
100
AcDbEntity
  8
1
  6
Continuous
 62
     7
100
AcDbLine
 10
245.4559900388853
 20
-9.15441087950563
 30
0.0
 11
246.9559900388853
 21
-7.65441087950563
 31
0.0
  0
LINE
  5
E4
330
1F
100
AcDbEntity
  8
1
  6
Continuous
 62
     7
100
AcDbLine
 10
244.9559900388853
 20
-9.15441087950563
 30
0.0
 11
245.4559900388853
 21
-9.15441087950563
 31
0.0
  0
LINE
  5
E5
330
1F
100
AcDbEntity
  8
1
  6
Continuous
 62
     7
100
AcDbLine
 10
244.9559900388853
 20
-5.15441087950563
 30
0.0
 11
244.9559900388853
 21
-9.15441087950563
 31
0.0
  0
LINE
  5
E6
330
1F
100
AcDbEntity
  8
1
  6
Continuous
 62
     7
100
AcDbLine
 10
241.9559900388853
 20
-5.15441087950563
 30
0.0
 11
244.9559900388853
 21
-5.15441087950563
 31
0.0
  0
LINE
  5
E7
330
1F
100
AcDbEntity
  8
1
  6
Continuous
 62
     7
100
AcDbLine
 10
241.9559900388853
 20
-30.15441087950563
 30
0.0
 11
241.9559900388853
 21
-5.15441087950563
 31
0.0
  0
LINE
  5
E8
330
1F
100
AcDbEntity
  8
1
  6
Continuous
 62
     7
100
AcDbLine
 10
244.9559900388853
 20
-30.15441087950563
 30
0.0
 11
241.9559900388853
 21
-30.15441087950563
 31
0.0
  0
LINE
  5
E9
330
1F
100
AcDbEntity
  8
1
  6
Continuous
 62
     7
100
AcDbLine
 10
244.9559900388853
 20
-28.65441087950561
 30
0.0
 11
244.9559900388853
 21
-30.15441087950563
 31
0.0
  0
LINE
  5
EA
330
1F
100
AcDbEntity
  8
1
  6
Continuous
 62
     7
100
AcDbLine
 10
246.9559900388853
 20
-28.65441087950561
 30
0.0
 11
244.9559900388853
 21
-28.65441087950561
 31
0.0
  0
LINE
  5
EB
330
1F
100
AcDbEntity
  8
1
  6
Continuous
 62
     7
100
AcDbLine
 10
246.9559900388853
 20
-32.15441087950563
 30
0.0
 11
246.9559900388853
 21
-28.65441087950561
 31
0.0
  0
LINE
  5
EC
330
1F
100
AcDbEntity
  8
1
  6
Continuous
 62
     7
100
AcDbLine
 10
238.9559900388853
 20
12.84558912049437
 30
0.0
 11
238.9559900388853
 21
21.34558912049439
 31
0.0
  0
LINE
  5
ED
330
1F
100
AcDbEntity
  8
1
  6
Continuous
 62
     7
100
AcDbLine
 10
243.9559900388853
 20
9.84558912049437
 30
0.0
 11
241.9559900388853
 21
9.84558912049437
 31
0.0
  0
LINE
  5
EE
330
1F
100
AcDbEntity
  8
1
  6
Continuous
 62
     7
100
AcDbLine
 10
243.9559900388853
 20
-2.15441087950563
 30
0.0
 11
243.9559900388853
 21
9.84558912049437
 31
0.0
  0
LINE
  5
EF
330
1F
100
AcDbEntity
  8
1
  6
Continuous
 62
     7
100
AcDbLine
 10
241.9559900388853
 20
-2.15441087950563
 30
0.0
 11
243.9559900388853
 21
-2.15441087950563
 31
0.0
  0
LINE
  5
F0
330
1F
100
AcDbEntity
  8
1
  6
Continuous
 62
     7
100
AcDbLine
 10
238.9559900388853
 20
-29.15441087950561
 30
0.0
 11
238.9559900388853
 21
-5.15441087950563
 31
0.0
  0
LINE
  5
F1
330
1F
100
AcDbEntity
  8
1
  6
Continuous
 62
     7
100
AcDbLine
 10
227.9559900388853
 20
-29.15441087950561
 30
0.0
 11
238.9559900388853
 21
-29.15441087950561
 31
0.0
  0
LINE
  5
F2
330
1F
100
AcDbEntity
  8
1
  6
Continuous
 62
     7
100
AcDbLine
 10
227.9559900388853
 20
-25.15441087950561
 30
0.0
 11
227.9559900388853
 21
-29.15441087950561
 31
0.0
  0
LINE
  5
F3
330
1F
100
AcDbEntity
  8
1
  6
Continuous
 62
     7
100
AcDbLine
 10
226.4559900388853
 20
-25.15441087950561
 30
0.0
 11
227.9559900388853
 21
-25.15441087950561
 31
0.0
  0
LINE
  5
F4
330
1F
100
AcDbEntity
  8
1
  6
Continuous
 62
     7
100
AcDbLine
 10
226.4559900388853
 20
-29.15441087950561
 30
0.0
 11
226.4559900388853
 21
-25.15441087950561
 31
0.0
  0
LINE
  5
F5
330
1F
100
AcDbEntity
  8
1
  6
Continuous
 62
     7
100
AcDbLine
 10
205.9559900388853
 20
-29.15441087950561
 30
0.0
 11
226.4559900388853
 21
-29.15441087950561
 31
0.0
  0
LINE
  5
F6
330
1F
100
AcDbEntity
  8
1
  6
Continuous
 62
     7
100
AcDbLine
 10
233.3156131018579
 20
45.84558912049438
 30
0.0
 11
260.8418865372238
 21
45.84558912049437
 31
0.0
  0
LINE
  5
F7
330
1F
100
AcDbEntity
  8
1
  6
Continuous
 62
     7
100
AcDbLine
 10
230.1640979503428
 20
32.84558912049439
 30
0.0
 11
233.3156131018579
 21
45.84558912049438
 31
0.0
  0
LINE
  5
F8
330
1F
100
AcDbEntity
  8
1
  6
Continuous
 62
     7
100
AcDbLine
 10
238.9559900388853
 20
32.84558912049439
 30
0.0
 11
230.1640979503428
 21
32.84558912049439
 31
0.0
  0
LINE
  5
F9
330
1F
100
AcDbEntity
  8
1
  6
Continuous
 62
     7
100
AcDbLine
 10
227.7425310598762
 20
29.34558912049439
 30
0.0
 11
219.9559900388853
 21
29.34558912049439
 31
0.0
  0
LINE
  5
FA
330
1F
100
AcDbEntity
  8
1
  6
Continuous
 62
     7
100
AcDbLine
 10
229.8004615867064
 20
31.34558912049439
 30
0.0
 11
229.6862312712536
 21
30.87438906925138
 31
0.0
  0
LINE
  5
FB
330
1F
100
AcDbEntity
  8
1
  6
Continuous
 62
     7
100
AcDbLine
 10
238.9559900388853
 20
31.34558912049439
 30
0.0
 11
229.8004615867064
 21
31.34558912049439
 31
0.0
  0
LINE
  5
FC
330
1F
100
AcDbEntity
  8
1
  6
Continuous
 62
     7
100
AcDbLine
 10
238.9559900388853
 20
22.84558912049439
 30
0.0
 11
238.9559900388853
 21
31.34558912049439
 31
0.0
  0
LINE
  5
FD
330
1F
100
AcDbEntity
  8
1
  6
Continuous
 62
     7
100
AcDbLine
 10
263.319670302515
 20
48.08118914611588
 30
0.0
 11
266.926655137342
 21
35.56625421895111
 31
0.0
  0
LINE
  5
FE
330
1F
100
AcDbEntity
  8
1
  6
Continuous
 62
     7
100
AcDbLine
 10
231.7425310598762
 20
48.84558912049438
 30
0.0
 11
262.3478201968263
 21
48.84558912049437
 31
0.0
  0
LINE
  5
FF
330
1F
100
AcDbEntity
  8
1
  6
Continuous
 62
     7
100
AcDbLine
 10
227.1412991235831
 20
33.10998909487288
 30
0.0
 11
230.7706809541875
 21
48.08118914611588
 31
0.0
  0
LINE
  5
100
330
1F
100
AcDbEntity
  8
1
  6
Continuous
 62
     7
100
AcDbLine
 10
219.9559900388853
 20
22.84558912049439
 30
0.0
 11
238.9559900388853
 21
22.84558912049439
 31
0.0
  0
LINE
  5
101
330
1F
100
AcDbEntity
  8
1
  6
Continuous
 62
     7
100
AcDbLine
 10
219.9559900388853
 20
29.34558912049439
 30
0.0
 11
219.9559900388853
 21
22.84558912049439
 31
0.0
  0
LINE
  5
102
330
1F
100
AcDbEntity
  8
1
  6
Continuous
 62
     7
100
AcDbLine
 10
211.9559900388853
 20
32.3455891204944
 30
0.0
 11
226.1694490178944
 21
32.3455891204944
 31
0.0
  0
LINE
  5
103
330
1F
100
AcDbEntity
  8
1
  6
Continuous
 62
     7
100
AcDbLine
 10
216.9559900388853
 20
29.34558912049439
 30
0.0
 11
214.9559900388853
 21
29.34558912049439
 31
0.0
  0
LINE
  5
104
330
1F
100
AcDbEntity
  8
1
  6
Continuous
 62
     7
100
AcDbLine
 10
217.9559900388853
 20
8.84558912049439
 30
0.0
 11
217.9559900388853
 21
7.78896479346845
 31
0.0
  0
LINE
  5
105
330
1F
100
AcDbEntity
  8
1
  6
Continuous
 62
     7
100
AcDbLine
 10
217.9559900388853
 20
21.34558912049439
 30
0.0
 11
238.9559900388853
 21
21.34558912049439
 31
0.0
  0
LINE
  5
106
330
1F
100
AcDbEntity
  8
1
  6
Continuous
 62
     7
100
AcDbLine
 10
217.9559900388853
 20
8.84558912049439
 30
0.0
 11
217.9559900388853
 21
21.34558912049439
 31
0.0
  0
LINE
  5
107
330
1F
100
AcDbEntity
  8
1
  6
Continuous
 62
     7
100
AcDbLine
 10
216.9559900388853
 20
6.34558912049439
 30
0.0
 11
217.2059900388853
 21
6.48992668779179
 31
0.0
  0
LINE
  5
108
330
1F
100
AcDbEntity
  8
1
  6
Continuous
 62
     7
100
AcDbLine
 10
216.9559900388853
 20
3.42293938968401
 30
0.0
 11
216.9559900388853
 21
6.34558912049439
 31
0.0
  0
LINE
  5
109
330
1F
100
AcDbEntity
  8
1
  6
Continuous
 62
     7
100
AcDbLine
 10
217.2059900388853
 20
3.2786018223866
 30
0.0
 11
216.9559900388853
 21
3.42293938968401
 31
0.0
  0
LINE
  5
10A
330
1F
100
AcDbEntity
  8
1
  6
Continuous
 62
     7
100
AcDbLine
 10
217.9559900388853
 20
-3.65441087950561
 30
0.0
 11
217.9559900388853
 21
1.97956371670995
 31
0.0
  0
LINE
  5
10B
330
1F
100
AcDbEntity
  8
1
  6
Continuous
 62
     7
100
AcDbLine
 10
216.9559900388853
 20
29.34558912049439
 30
0.0
 11
216.9559900388853
 21
23.84558912049439
 31
0.0
  0
LINE
  5
10C
330
1F
100
AcDbEntity
  8
1
  6
Continuous
 62
     7
100
AcDbLine
 10
214.9559900388853
 20
23.84558912049439
 30
0.0
 11
216.9559900388853
 21
23.84558912049439
 31
0.0
  0
LINE
  5
10D
330
1F
100
AcDbEntity
  8
1
  6
Continuous
 62
     7
100
AcDbLine
 10
214.9559900388853
 20
23.84558912049439
 30
0.0
 11
214.9559900388853
 21
7.84558912049439
 31
0.0
  0
LINE
  5
10E
330
1F
100
AcDbEntity
  8
1
  6
Continuous
 62
     7
100
AcDbLine
 10
206.4559900388853
 20
0.34558912049439
 30
0.0
 11
206.4559900388853
 21
-1.65441087950561
 31
0.0
  0
LINE
  5
10F
330
1F
100
AcDbEntity
  8
1
  6
Continuous
 62
     7
100
AcDbLine
 10
211.7059900388853
 20
7.84558912049439
 30
0.0
 11
214.9559900388853
 21
7.84558912049439
 31
0.0
  0
LINE
  5
110
330
1F
100
AcDbEntity
  8
1
  6
Continuous
 62
     7
100
AcDbLine
 10
211.7059900388853
 20
6.34558912049439
 30
0.0
 11
211.7059900388853
 21
7.84558912049439
 31
0.0
  0
LINE
  5
111
330
1F
100
AcDbEntity
  8
1
  6
Continuous
 62
     7
100
AcDbLine
 10
213.9559900388853
 20
6.34558912049439
 30
0.0
 11
211.7059900388853
 21
6.34558912049439
 31
0.0
  0
LINE
  5
112
330
1F
100
AcDbEntity
  8
1
  6
Continuous
 62
     7
100
AcDbLine
 10
213.9559900388853
 20
2.84558912049439
 30
0.0
 11
213.9559900388853
 21
6.34558912049439
 31
0.0
  0
LINE
  5
113
330
1F
100
AcDbEntity
  8
1
  6
Continuous
 62
     7
100
AcDbLine
 10
206.4559900388853
 20
2.84558912049439
 30
0.0
 11
213.9559900388853
 21
2.84558912049439
 31
0.0
  0
LINE
  5
114
330
1F
100
AcDbEntity
  8
1
  6
Continuous
 62
     7
100
AcDbLine
 10
206.4559900388853
 20
6.34558912049439
 30
0.0
 11
206.4559900388853
 21
2.84558912049439
 31
0.0
  0
LINE
  5
115
330
1F
100
AcDbEntity
  8
1
  6
Continuous
 62
     7
100
AcDbLine
 10
208.7059900388853
 20
6.34558912049439
 30
0.0
 11
206.4559900388853
 21
6.34558912049439
 31
0.0
  0
LINE
  5
116
330
1F
100
AcDbEntity
  8
1
  6
Continuous
 62
     7
100
AcDbLine
 10
208.7059900388853
 20
7.84558912049439
 30
0.0
 11
208.7059900388853
 21
6.34558912049439
 31
0.0
  0
LINE
  5
117
330
1F
100
AcDbEntity
  8
1
  6
Continuous
 62
     7
100
AcDbLine
 10
203.9559900388853
 20
7.84558912049439
 30
0.0
 11
208.7059900388853
 21
7.84558912049439
 31
0.0
  0
LINE
  5
118
330
1F
100
AcDbEntity
  8
1
  6
Continuous
 62
     7
100
AcDbLine
 10
203.9559900388853
 20
0.34558912049439
 30
0.0
 11
203.9559900388853
 21
7.84558912049439
 31
0.0
  0
LINE
  5
119
330
1F
100
AcDbEntity
  8
1
  6
Continuous
 62
     7
100
AcDbLine
 10
220.554818449848
 20
-7.65441087950561
 30
0.0
 11
217.9559900388853
 21
-9.73347360827576
 31
0.0
  0
LINE
  5
11A
330
1F
100
AcDbEntity
  8
1
  6
Continuous
 62
     7
100
AcDbLine
 10
217.9559900388853
 20
-5.57534815073547
 30
0.0
 11
220.554818449848
 21
-7.65441087950561
 31
0.0
  0
LINE
  5
11B
330
1F
100
AcDbEntity
  8
1
  6
Continuous
 62
     7
100
AcDbLine
 10
217.9559900388853
 20
-9.73347360827576
 30
0.0
 11
217.9559900388853
 21
-5.57534815073547
 31
0.0
  0
LINE
  5
11C
330
1F
100
AcDbEntity
  8
1
  6
Continuous
 62
     7
100
AcDbLine
 10
221.4918610211796
 20
-6.48310766534107
 30
0.0
 11
217.9559900388853
 21
-3.65441087950561
 31
0.0
  0
LINE
  5
11D
330
1F
100
AcDbEntity
  8
1
  6
Continuous
 62
     7
100
AcDbLine
 10
217.9559900388853
 20
-11.65441087950561
 30
0.0
 11
221.4918610211796
 21
-8.82571409367016
 31
0.0
  0
LINE
  5
11E
330
1F
100
AcDbEntity
  8
1
  6
Continuous
 62
     7
100
AcDbLine
 10
217.9559900388853
 20
-15.65441087950561
 30
0.0
 11
217.9559900388853
 21
-11.65441087950561
 31
0.0
  0
LINE
  5
11F
330
1F
100
AcDbEntity
  8
1
  6
Continuous
 62
     7
100
AcDbLine
 10
206.4559900388853
 20
-18.65441087950561
 30
0.0
 11
206.3059752982685
 21
-19.85452880444009
 31
0.0
  0
LINE
  5
120
330
1F
100
AcDbEntity
  8
1
  6
Continuous
 62
     7
100
AcDbLine
 10
214.9559900388853
 20
-18.65441087950561
 30
0.0
 11
206.4559900388853
 21
-18.65441087950561
 31
0.0
  0
LINE
  5
121
330
1F
100
AcDbEntity
  8
1
  6
Continuous
 62
     7
100
AcDbLine
 10
206.4559900388853
 20
0.34558912049439
 30
0.0
 11
203.9559900388853
 21
0.34558912049439
 31
0.0
  0
LINE
  5
122
330
1F
100
AcDbEntity
  8
1
  6
Continuous
 62
     7
100
AcDbLine
 10
209.9559900388853
 20
-1.65441087950561
 30
0.0
 11
206.4559900388853
 21
-1.65441087950561
 31
0.0
  0
LINE
  5
123
330
1F
100
AcDbEntity
  8
1
  6
Continuous
 62
     7
100
AcDbLine
 10
209.9559900388853
 20
0.34558912049439
 30
0.0
 11
209.9559900388853
 21
-1.65441087950561
 31
0.0
  0
LINE
  5
124
330
1F
100
AcDbEntity
  8
1
  6
Continuous
 62
     7
100
AcDbLine
 10
214.9559900388853
 20
0.34558912049439
 30
0.0
 11
209.9559900388853
 21
0.34558912049439
 31
0.0
  0
LINE
  5
125
330
1F
100
AcDbEntity
  8
1
  6
Continuous
 62
     7
100
AcDbLine
 10
214.9559900388853
 20
-15.65441087950561
 30
0.0
 11
214.9559900388853
 21
0.34558912049439
 31
0.0
  0
LINE
  5
126
330
1F
100
AcDbEntity
  8
1
  6
Continuous
 62
     7
100
AcDbLine
 10
209.9559900388853
 20
-15.65441087950561
 30
0.0
 11
214.9559900388853
 21
-15.65441087950561
 31
0.0
  0
LINE
  5
127
330
1F
100
AcDbEntity
  8
1
  6
Continuous
 62
     7
100
AcDbLine
 10
209.9559900388853
 20
-13.65441087950561
 30
0.0
 11
209.9559900388853
 21
-15.65441087950561
 31
0.0
  0
LINE
  5
128
330
1F
100
AcDbEntity
  8
1
  6
Continuous
 62
     7
100
AcDbLine
 10
206.4559900388853
 20
-13.65441087950561
 30
0.0
 11
209.9559900388853
 21
-13.65441087950561
 31
0.0
  0
LINE
  5
129
330
1F
100
AcDbEntity
  8
1
  6
Continuous
 62
     7
100
AcDbLine
 10
206.4559900388853
 20
-15.65441087950561
 30
0.0
 11
206.4559900388853
 21
-13.65441087950561
 31
0.0
  0
LINE
  5
12A
330
1F
100
AcDbEntity
  8
1
  6
Continuous
 62
     7
100
AcDbLine
 10
203.9559900388853
 20
-15.65441087950561
 30
0.0
 11
206.4559900388853
 21
-15.65441087950561
 31
0.0
  0
LINE
  5
12B
330
1F
100
AcDbEntity
  8
1
  6
Continuous
 62
     7
100
AcDbLine
 10
203.9559900388853
 20
-19.65441087950561
 30
0.0
 11
203.9559900388853
 21
-15.65441087950561
 31
0.0
  0
LINE
  5
12C
330
1F
100
AcDbEntity
  8
1
  6
Continuous
 62
     7
100
AcDbLine
 10
183.9559900388853
 20
-32.15441087950561
 30
0.0
 11
246.9559900388853
 21
-32.15441087950563
 31
0.0
  0
LINE
  5
12D
330
1F
100
AcDbEntity
  8
1
  6
Continuous
 62
     7
100
AcDbLine
 10
193.4559900388853
 20
-28.65441087950561
 30
0.0
 11
193.4559900388853
 21
-28.00549570391477
 31
0.0
  0
LINE
  5
12E
330
1F
100
AcDbEntity
  8
1
  6
Continuous
 62
     7
100
AcDbLine
 10
196.9559900388853
 20
-29.15441087950561
 30
0.0
 11
193.9559900388853
 21
-29.15441087950561
 31
0.0
  0
LINE
  5
12F
330
1F
100
AcDbEntity
  8
1
  6
Continuous
 62
     7
100
AcDbLine
 10
191.9559900388853
 20
-19.65441087950561
 30
0.0
 11
203.9559900388853
 21
-19.65441087950561
 31
0.0
  0
LINE
  5
130
330
1F
100
AcDbEntity
  8
1
  6
Continuous
 62
     7
100
AcDbLine
 10
186.9559900388853
 20
-21.15441087950561
 30
0.0
 11
186.9559900388853
 21
-21.54743315402985
 31
0.0
  0
LINE
  5
131
330
1F
100
AcDbEntity
  8
1
  6
Continuous
 62
     7
100
AcDbLine
 10
188.9559900388853
 20
-21.15441087950561
 30
0.0
 11
186.9559900388853
 21
-21.15441087950561
 31
0.0
  0
LINE
  5
132
330
1F
100
AcDbEntity
  8
1
  6
Continuous
 62
     7
100
AcDbLine
 10
188.9559900388853
 20
-19.65441087950561
 30
0.0
 11
188.9559900388853
 21
-21.15441087950561
 31
0.0
  0
LINE
  5
133
330
1F
100
AcDbEntity
  8
1
  6
Continuous
 62
     7
100
AcDbLine
 10
185.4559900388853
 20
-19.65441087950561
 30
0.0
 11
188.9559900388853
 21
-19.65441087950561
 31
0.0
  0
LINE
  5
134
330
1F
100
AcDbEntity
  8
1
  6
Continuous
 62
     7
100
AcDbLine
 10
203.9559900388853
 20
-28.65441087950561
 30
0.0
 11
203.9559900388853
 21
-27.08686473689256
 31
0.0
  0
LINE
  5
135
330
1F
100
AcDbEntity
  8
1
  6
Continuous
 62
     7
100
AcDbLine
 10
199.4559900388853
 20
-29.15441087950561
 30
0.0
 11
203.4559900388853
 21
-29.15441087950561
 31
0.0
  0
LINE
  5
136
330
1F
100
AcDbEntity
  8
1
  6
Continuous
 62
     7
100
AcDbLine
 10
191.9559900388853
 20
-28.65441087950561
 30
0.0
 11
191.9559900388853
 21
-28.13672869920365
 31
0.0
  0
LINE
  5
137
330
1F
100
AcDbEntity
  8
1
  6
Continuous
 62
     7
100
AcDbLine
 10
187.4559900388853
 20
-29.15441087950561
 30
0.0
 11
191.4559900388853
 21
-29.15441087950561
 31
0.0
  0
LINE
  5
138
330
1F
100
AcDbEntity
  8
1
  6
Continuous
 62
     7
100
AcDbLine
 10
185.4559900388853
 20
-18.15441087950561
 30
0.0
 11
185.4559900388853
 21
-19.65441087950561
 31
0.0
  0
LINE
  5
139
330
1F
100
AcDbEntity
  8
1
  6
Continuous
 62
     7
100
AcDbLine
 10
183.9559900388853
 20
-18.15441087950561
 30
0.0
 11
185.4559900388853
 21
-18.15441087950561
 31
0.0
  0
LINE
  5
13A
330
1F
100
AcDbEntity
  8
1
  6
Continuous
 62
     7
100
AcDbLine
 10
147.9559900388853
 20
-16.1544108795056
 30
0.0
 11
167.9559900388853
 21
-16.1544108795056
 31
0.0
  0
LINE
  5
13B
330
1F
100
AcDbEntity
  8
1
  6
Continuous
 62
     7
100
AcDbLine
 10
167.9559900388853
 20
-16.1544108795056
 30
0.0
 11
167.9559900388853
 21
-18.6544108795056
 31
0.0
  0
LINE
  5
13C
330
1F
100
AcDbEntity
  8
1
  6
Continuous
 62
     7
100
AcDbLine
 10
167.9559900388853
 20
-16.1544108795056
 30
0.0
 11
171.5559900388853
 21
-16.1544108795056
 31
0.0
  0
LINE
  5
13D
330
1F
100
AcDbEntity
  8
1
  6
Continuous
 62
     7
100
AcDbLine
 10
167.9559900388853
 20
-18.6544108795056
 30
0.0
 11
168.9559900388853
 21
-18.6544108795056
 31
0.0
  0
LINE
  5
13E
330
1F
100
AcDbEntity
  8
1
  6
Continuous
 62
     7
100
AcDbLine
 10
180.9559900388853
 20
-18.65441087950561
 30
0.0
 11
180.9559900388853
 21
-16.1544108795056
 31
0.0
  0
LINE
  5
13F
330
1F
100
AcDbEntity
  8
1
  6
Continuous
 62
     7
100
AcDbLine
 10
180.9559900388853
 20
-16.1544108795056
 30
0.0
 11
191.9559900388853
 21
-16.15441087950561
 31
0.0
  0
LINE
  5
140
330
1F
100
AcDbEntity
  8
1
  6
Continuous
 62
     7
100
AcDbLine
 10
168.9559900388853
 20
-18.6544108795056
 30
0.0
 11
169.9559900388853
 21
-19.65441087950561
 31
0.0
  0
LINE
  5
141
330
1F
100
AcDbEntity
  8
1
  6
Continuous
 62
     7
100
AcDbLine
 10
168.9559900388853
 20
-18.6544108795056
 30
0.0
 11
170.2059900388853
 21
-18.6544108795056
 31
0.0
  0
LINE
  5
142
330
1F
100
AcDbEntity
  8
1
  6
Continuous
 62
     7
100
AcDbLine
 10
179.9559900388853
 20
-18.65441087950561
 30
0.0
 11
178.9559900388853
 21
-19.65441087950561
 31
0.0
  0
LINE
  5
143
330
1F
100
AcDbEntity
  8
1
  6
Continuous
 62
     7
100
AcDbLine
 10
179.9559900388853
 20
-18.65441087950561
 30
0.0
 11
180.9559900388853
 21
-18.65441087950561
 31
0.0
  0
LINE
  5
144
330
1F
100
AcDbEntity
  8
1
  6
Continuous
 62
     7
100
AcDbLine
 10
169.9559900388853
 20
-19.65441087950561
 30
0.0
 11
178.9559900388853
 21
-19.65441087950561
 31
0.0
  0
LINE
  5
145
330
1F
100
AcDbEntity
  8
1
  6
Continuous
 62
     7
100
AcDbLine
 10
169.9559900388853
 20
-19.65441087950561
 30
0.0
 11
170.9699004276537
 21
-20.66832126827402
 31
0.0
  0
LINE
  5
146
330
1F
100
AcDbEntity
  8
1
  6
Continuous
 62
     7
100
AcDbLine
 10
178.9559900388853
 20
-19.65441087950561
 30
0.0
 11
177.9420796501169
 21
-20.66832126827402
 31
0.0
  0
LINE
  5
147
330
1F
100
AcDbEntity
  8
1
  6
Continuous
 62
     7
100
AcDbLine
 10
183.9559900388853
 20
-18.15441087950561
 30
0.0
 11
183.9559900388853
 21
-21.80989914460762
 31
0.0
  0
LINE
  5
148
330
1F
100
AcDbEntity
  8
1
  6
DOT_CENTER
 62
     2
100
AcDbLine
 10
174.4559900388853
 20
5.34558912049441
 30
0.0
 11
174.4559900388853
 21
-26.15441087950561
 31
0.0
  0
LINE
  5
149
330
1F
100
AcDbEntity
  8
1
  6
DASHED
 62
     2
100
AcDbLine
 10
177.3559900388853
 20
-16.1544108795056
 30
0.0
 11
177.3559900388853
 21
-17.04554352950341
 31
0.0
  0
LINE
  5
14A
330
1F
100
AcDbEntity
  8
1
  6
Continuous
 62
     7
100
AcDbLine
 10
177.3559900388853
 20
-16.1544108795056
 30
0.0
 11
180.9559900388853
 21
-16.1544108795056
 31
0.0
  0
LINE
  5
14B
330
1F
100
AcDbEntity
  8
1
  6
DASHED
 62
     2
100
AcDbLine
 10
177.3559900388853
 20
-17.04554352950341
 30
0.0
 11
178.7059900388853
 21
-18.6544108795056
 31
0.0
  0
LINE
  5
14C
330
1F
100
AcDbEntity
  8
1
  6
Continuous
 62
     7
100
AcDbLine
 10
178.7059900388853
 20
-18.6544108795056
 30
0.0
 11
179.9559900388853
 21
-18.65441087950561
 31
0.0
  0
LINE
  5
14D
330
1F
100
AcDbEntity
  8
1
  6
DASHED
 62
     2
100
AcDbLine
 10
171.5559900388853
 20
-16.1544108795056
 30
0.0
 11
171.5559900388853
 21
-17.04554352950341
 31
0.0
  0
LINE
  5
14E
330
1F
100
AcDbEntity
  8
1
  6
Continuous
 62
     7
100
AcDbLine
 10
171.5559900388853
 20
-16.1544108795056
 30
0.0
 11
177.3559900388853
 21
-16.1544108795056
 31
0.0
  0
LINE
  5
14F
330
1F
100
AcDbEntity
  8
1
  6
DASHED
 62
     2
100
AcDbLine
 10
171.5559900388853
 20
-17.04554352950341
 30
0.0
 11
170.2059900388853
 21
-18.6544108795056
 31
0.0
  0
LINE
  5
150
330
1F
100
AcDbEntity
  8
1
  6
Continuous
 62
     7
100
AcDbLine
 10
170.2059900388853
 20
-18.6544108795056
 30
0.0
 11
178.7059900388853
 21
-18.6544108795056
 31
0.0
  0
LINE
  5
151
330
1F
100
AcDbEntity
  8
1
  6
DASHED
 62
     2
100
AcDbLine
 10
177.3559900388853
 20
-17.04554352950341
 30
0.0
 11
171.5559900388853
 21
-17.04554352950341
 31
0.0
  0
LINE
  5
152
330
1F
100
AcDbEntity
  8
1
  6
Continuous
 62
     7
100
AcDbLine
 10
191.9559900388853
 20
-21.10998983640023
 30
0.0
 11
191.9559900388853
 21
-19.65441087950561
 31
0.0
  0
LINE
  5
153
330
1F
100
AcDbEntity
  8
1
  6
Continuous
 62
     7
100
AcDbLine
 10
183.9559900388853
 20
-28.83663800741105
 30
0.0
 11
183.9559900388853
 21
-32.15441087950561
 31
0.0
  0
LINE
  5
154
330
1F
100
AcDbEntity
  8
1
  6
Continuous
 62
     7
100
AcDbLine
 10
186.9559900388853
 20
-28.57417201683327
 30
0.0
 11
186.9559900388853
 21
-28.65441087950561
 31
0.0
  0
LINE
  5
155
330
1F
100
AcDbEntity
  8
1
  6
Continuous
 62
     7
100
AcDbLine
 10
197.4559900388853
 20
-27.65554104981107
 30
0.0
 11
197.4559900388853
 21
-28.65441087950561
 31
0.0
  0
LINE
  5
156
330
1F
100
AcDbEntity
  8
1
  6
Continuous
 62
     7
100
AcDbLine
 10
198.9559900388853
 20
-27.52430805452218
 30
0.0
 11
198.9559900388853
 21
-28.65441087950561
 31
0.0
  0
LINE
  5
157
330
1F
100
AcDbEntity
  8
1
  6
Continuous
 62
     7
100
AcDbLine
 10
205.9559900388853
 20
-26.91188740984072
 30
0.0
 11
205.9559900388853
 21
-29.15441087950561
 31
0.0
  0
LINE
  5
158
330
1F
100
AcDbEntity
  8
1
  6
DOT_CENTER
 62
     2
100
AcDbLine
 10
178.4559900388853
 20
-26.15441087950561
 30
0.0
 11
182.1424057796915
 21
-26.15441087950561
 31
0.0
  0
ARC
  5
159
330
1F
100
AcDbEntity
  8
1
  6
Continuous
 62
     7
100
AcDbCircle
 10
174.4559900388853
 20
-26.15441087950561
 30
0.0
 40
6.499999999999999
100
AcDbArc
 50
122.4335752953217
 51
-27.578970392804
  0
ARC
  5
15A
330
1F
100
AcDbEntity
  8
1
  6
Continuous
 62
     7
100
AcDbCircle
 10
174.4559900388853
 20
-26.15441087950561
 30
0.0
 40
6.500000000000025
100
AcDbArc
 50
-27.578970392804
 51
37.57897039280393
  0
ARC
  5
15B
330
1F
100
AcDbEntity
  8
1
  6
Continuous
 62
     7
100
AcDbCircle
 10
242.9559900388853
 20
36.34558912049439
 30
0.0
 40
1.0
100
AcDbArc
 50
0.0
 51
180.0
  0
ARC
  5
15C
330
1F
100
AcDbEntity
  8
1
  6
Continuous
 62
     7
100
AcDbCircle
 10
242.8492652040459
 20
36.453777033396
 30
0.0
 40
3.893275165160667
100
AcDbArc
 50
47.96800467692
 51
180.0
  0
ARC
  5
15D
330
1F
100
AcDbEntity
  8
1
  6
Continuous
 62
     7
100
AcDbCircle
 10
174.4559900388853
 20
-26.15441087950561
 30
0.0
 40
6.500000000000015
100
AcDbArc
 50
37.57897039280393
 51
57.56642470467811
  0
ARC
  5
15E
330
1F
100
AcDbEntity
  8
1
  6
Continuous
 62
     7
100
AcDbCircle
 10
174.4559900388853
 20
-26.15441087950561
 30
0.0
 40
6.500000000000013
100
AcDbArc
 50
57.56642470467811
 51
122.4335752953217
  0
CIRCLE
  5
15F
330
1F
100
AcDbEntity
  8
1
  6
Continuous
 62
     7
100
AcDbCircle
 10
174.4559900388853
 20
-26.15441087950561
 30
0.0
 40
4.0
  0
ARC
  5
160
102
{ACAD_REACTORS
330
18A
330
18A
102
}
330
1F
100
AcDbEntity
  8
1
  6
Continuous
 62
     7
100
AcDbCircle
 10
220.7501130697414
 20
18.84558912049439
 30
0.0
 40
2.0
100
AcDbArc
 50
90.0
 51
170.0
  0
ARC
  5
161
102
{ACAD_REACTORS
330
18A
330
18A
102
}
330
1F
100
AcDbEntity
  8
1
  6
Continuous
 62
     7
100
AcDbCircle
 10
236.4559900388853
 20
18.84558912049439
 30
0.0
 40
2.0
100
AcDbArc
 50
0.0
 51
90.0
  0
ARC
  5
162
102
{ACAD_REACTORS
330
18A
330
18A
102
}
330
1F
100
AcDbEntity
  8
1
  6
Continuous
 62
     7
100
AcDbCircle
 10
236.4559900388853
 20
-26.65441087950561
 30
0.0
 40
2.0
100
AcDbArc
 50
-90.0
 51
0.0
  0
ARC
  5
163
102
{ACAD_REACTORS
330
18A
330
18A
102
}
330
1F
100
AcDbEntity
  8
1
  6
Continuous
 62
     7
100
AcDbCircle
 10
230.4559900388853
 20
-26.65441087950561
 30
0.0
 40
2.0
100
AcDbArc
 50
180.0
 51
-90.0
  0
ARC
  5
164
102
{ACAD_REACTORS
330
18A
330
18A
102
}
330
1F
100
AcDbEntity
  8
1
  6
Continuous
 62
     7
100
AcDbCircle
 10
236.4559900388853
 20
-26.65441087950561
 30
0.0
 40
0.5
100
AcDbArc
 50
-90.0
 51
0.0
  0
ARC
  5
165
102
{ACAD_REACTORS
330
18A
330
18A
102
}
330
1F
100
AcDbEntity
  8
1
  6
Continuous
 62
     7
100
AcDbCircle
 10
230.4559900388853
 20
-26.65441087950561
 30
0.0
 40
0.5
100
AcDbArc
 50
180.0
 51
-90.0
  0
ARC
  5
166
102
{ACAD_REACTORS
330
18A
330
18A
102
}
330
1F
100
AcDbEntity
  8
1
  6
Continuous
 62
     7
100
AcDbCircle
 10
236.4559900388853
 20
18.84558912049439
 30
0.0
 40
0.5
100
AcDbArc
 50
0.0
 51
90.0
  0
ARC
  5
167
102
{ACAD_REACTORS
330
18A
330
18A
102
}
330
1F
100
AcDbEntity
  8
1
  6
Continuous
 62
     7
100
AcDbCircle
 10
220.7501130697414
 20
18.84558912049439
 30
0.0
 40
0.5
100
AcDbArc
 50
90.0
 51
170.0
  0
ARC
  5
168
102
{ACAD_REACTORS
330
189
330
189
102
}
330
1F
100
AcDbEntity
  8
1
  6
Continuous
 62
     7
100
AcDbCircle
 10
180.4559900388853
 20
-0.1544108795056
 30
0.0
 40
2.5
100
AcDbArc
 50
-90.0
 51
0.0
  0
ARC
  5
169
102
{ACAD_REACTORS
330
189
330
189
102
}
330
1F
100
AcDbEntity
  8
1
  6
Continuous
 62
     7
100
AcDbCircle
 10
154.4559900388853
 20
34.8455891204944
 30
0.0
 40
2.5
100
AcDbArc
 50
90.0
 51
180.0
  0
ARC
  5
16A
102
{ACAD_REACTORS
330
189
330
189
102
}
330
1F
100
AcDbEntity
  8
1
  6
Continuous
 62
     7
100
AcDbCircle
 10
180.4559900388853
 20
34.8455891204944
 30
0.0
 40
2.5
100
AcDbArc
 50
0.0
 51
90.0
  0
ARC
  5
16B
102
{ACAD_REACTORS
330
189
330
189
102
}
330
1F
100
AcDbEntity
  8
1
  6
Continuous
 62
     7
100
AcDbCircle
 10
154.4559900388853
 20
-0.1544108795056
 30
0.0
 40
2.5
100
AcDbArc
 50
180.0
 51
-90.0
  0
ARC
  5
16C
102
{ACAD_REACTORS
330
189
330
189
102
}
330
1F
100
AcDbEntity
  8
1
  6
Continuous
 62
     7
100
AcDbCircle
 10
154.4559900388853
 20
-0.1544108795056
 30
0.0
 40
0.5
100
AcDbArc
 50
180.0
 51
-90.0
  0
ARC
  5
16D
102
{ACAD_REACTORS
330
189
330
189
102
}
330
1F
100
AcDbEntity
  8
1
  6
Continuous
 62
     7
100
AcDbCircle
 10
180.4559900388853
 20
-0.1544108795056
 30
0.0
 40
0.5
100
AcDbArc
 50
-90.0
 51
0.0
  0
ARC
  5
16E
102
{ACAD_REACTORS
330
189
330
189
102
}
330
1F
100
AcDbEntity
  8
1
  6
Continuous
 62
     7
100
AcDbCircle
 10
180.4559900388853
 20
34.8455891204944
 30
0.0
 40
0.5
100
AcDbArc
 50
0.0
 51
90.0
  0
ARC
  5
16F
102
{ACAD_REACTORS
330
189
330
189
102
}
330
1F
100
AcDbEntity
  8
1
  6
Continuous
 62
     7
100
AcDbCircle
 10
154.4559900388853
 20
34.8455891204944
 30
0.0
 40
0.5
100
AcDbArc
 50
90.0
 51
180.0
  0
ARC
  5
170
330
1F
100
AcDbEntity
  8
1
  6
Continuous
 62
     7
100
AcDbCircle
 10
219.2059900388853
 20
35.35854813847599
 30
0.0
 40
0.7500000000000376
100
AcDbArc
 50
-163.9222551796746
 51
-73.92225517967546
  0
ARC
  5
171
330
1F
100
AcDbEntity
  8
1
  6
Continuous
 62
     7
100
AcDbCircle
 10
219.2059900388853
 20
35.35854813847599
 30
0.0
 40
0.7499999999999976
100
AcDbArc
 50
-73.92225517967546
 51
16.07774482032605
  0
ARC
  5
172
330
1F
100
AcDbEntity
  8
1
  6
Continuous
 62
     7
100
AcDbCircle
 10
210.5024417911198
 20
41.34558912049437
 30
0.0
 40
1.0
100
AcDbArc
 50
90.0
 51
169.9999999999998
  0
ARC
  5
173
330
1F
100
AcDbEntity
  8
1
  6
Continuous
 62
     7
100
AcDbCircle
 10
215.3478201968263
 20
47.84558912049437
 30
0.0
 40
1.0
100
AcDbArc
 50
13.6269948598922
 51
90.0
  0
ARC
  5
174
330
1F
100
AcDbEntity
  8
1
  6
Continuous
 62
     7
100
AcDbCircle
 10
226.1694490178944
 20
33.34558912049439
 30
0.0
 40
0.9999999999999858
100
AcDbArc
 50
-90.0
 51
-13.6269948598918
  0
ARC
  5
175
330
1F
100
AcDbEntity
  8
1
  6
Continuous
 62
     7
100
AcDbCircle
 10
186.9559900388853
 20
11.34558912049439
 30
0.0
 40
3.0
100
AcDbArc
 50
90.0
 51
180.0
  0
ARC
  5
176
330
1F
100
AcDbEntity
  8
1
  6
Continuous
 62
     7
100
AcDbCircle
 10
266.2059900388853
 20
35.35854813847599
 30
0.0
 40
0.7500000000000923
100
AcDbArc
 50
-163.9222551796758
 51
-73.92225517967753
  0
ARC
  5
177
330
1F
100
AcDbEntity
  8
1
  6
Continuous
 62
     7
100
AcDbCircle
 10
266.2059900388853
 20
35.35854813847599
 30
0.0
 40
0.7499999999999897
100
AcDbArc
 50
-73.92225517967753
 51
16.07774482032725
  0
ARC
  5
178
330
1F
100
AcDbEntity
  8
1
  6
Continuous
 62
     7
100
AcDbCircle
 10
257.5024417911199
 20
41.34558912049437
 30
0.0
 40
1.0
100
AcDbArc
 50
90.0
 51
170.0000000000009
  0
ARC
  5
179
330
1F
100
AcDbEntity
  8
1
  6
Continuous
 62
     7
100
AcDbCircle
 10
241.9559900388853
 20
-5.15441087950563
 30
0.0
 40
3.0
100
AcDbArc
 50
90.0
 51
180.0
  0
ARC
  5
17A
330
1F
100
AcDbEntity
  8
1
  6
Continuous
 62
     7
100
AcDbCircle
 10
241.9559900388853
 20
12.84558912049437
 30
0.0
 40
3.0
100
AcDbArc
 50
180.0
 51
-90.0
  0
ARC
  5
17B
330
1F
100
AcDbEntity
  8
1
  6
Continuous
 62
     7
100
AcDbCircle
 10
227.7425310598762
 20
31.34558912049439
 30
0.0
 40
2.0
100
AcDbArc
 50
-90.0
 51
-13.62699485989171
  0
ARC
  5
17C
330
1F
100
AcDbEntity
  8
1
  6
Continuous
 62
     7
100
AcDbCircle
 10
262.3478201968263
 20
47.84558912049437
 30
0.0
 40
1.0
100
AcDbArc
 50
13.6269948598922
 51
90.0
  0
ARC
  5
17D
330
1F
100
AcDbEntity
  8
1
  6
Continuous
 62
     7
100
AcDbCircle
 10
231.7425310598762
 20
47.84558912049438
 30
0.0
 40
1.0
100
AcDbArc
 50
90.0
 51
166.3730051401086
  0
ARC
  5
17E
330
1F
100
AcDbEntity
  8
1
  6
Continuous
 62
     7
100
AcDbCircle
 10
214.9559900388853
 20
32.3455891204944
 30
0.0
 40
3.0
100
AcDbArc
 50
180.0
 51
-90.0
  0
ARC
  5
17F
330
1F
100
AcDbEntity
  8
1
  6
Continuous
 62
     7
100
AcDbCircle
 10
216.4559900388853
 20
7.78896479346845
 30
0.0
 40
1.5
100
AcDbArc
 50
-60.00000000000001
 51
0.0
  0
ARC
  5
180
330
1F
100
AcDbEntity
  8
1
  6
Continuous
 62
     7
100
AcDbCircle
 10
216.4559900388853
 20
1.97956371670995
 30
0.0
 40
1.5
100
AcDbArc
 50
0.0
 51
59.99999999999986
  0
ARC
  5
181
330
1F
100
AcDbEntity
  8
1
  6
Continuous
 62
     7
100
AcDbCircle
 10
214.9559900388853
 20
-15.65441087950561
 30
0.0
 40
2.999999999999998
100
AcDbArc
 50
-90.0
 51
0.0
  0
ARC
  5
182
330
1F
100
AcDbEntity
  8
1
  6
Continuous
 62
     7
100
AcDbCircle
 10
220.554818449848
 20
-7.65441087950561
 30
0.0
 40
1.499999999999979
100
AcDbArc
 50
-51.34019174591093
 51
51.34019174591093
  0
ARC
  5
183
330
1F
100
AcDbEntity
  8
1
  6
Continuous
 62
     7
100
AcDbCircle
 10
196.9559900388853
 20
-28.65441087950561
 30
0.0
 40
0.5
100
AcDbArc
 50
-90.0
 51
0.0
  0
ARC
  5
184
330
1F
100
AcDbEntity
  8
1
  6
Continuous
 62
     7
100
AcDbCircle
 10
193.9559900388853
 20
-28.65441087950561
 30
0.0
 40
0.5
100
AcDbArc
 50
180.0
 51
-90.0
  0
ARC
  5
185
330
1F
100
AcDbEntity
  8
1
  6
Continuous
 62
     7
100
AcDbCircle
 10
203.4559900388853
 20
-28.65441087950561
 30
0.0
 40
0.5
100
AcDbArc
 50
-90.0
 51
0.0
  0
ARC
  5
186
330
1F
100
AcDbEntity
  8
1
  6
Continuous
 62
     7
100
AcDbCircle
 10
199.4559900388853
 20
-28.65441087950561
 30
0.0
 40
0.5
100
AcDbArc
 50
180.0
 51
-90.0
  0
ARC
  5
187
330
1F
100
AcDbEntity
  8
1
  6
Continuous
 62
     7
100
AcDbCircle
 10
191.4559900388853
 20
-28.65441087950561
 30
0.0
 40
0.5
100
AcDbArc
 50
-90.0
 51
0.0
  0
ARC
  5
188
330
1F
100
AcDbEntity
  8
1
  6
Continuous
 62
     7
100
AcDbCircle
 10
187.4559900388853
 20
-28.65441087950561
 30
0.0
 40
0.5
100
AcDbArc
 50
180.0
 51
-90.0
  0
HATCH
  5
189
330
1F
100
AcDbEntity
  8
1
  6
Continuous
 62
     3
100
AcDbHatch
 10
0.0
 20
0.0
 30
0.0
210
0.0
220
0.0
230
1.0
  2
SOLID
 70
     1
 71
     1
 91
        2
 92
        1
 93
        8
 72
     2
 10
180.4559900388853
 20
34.8455891204944
 40
2.5
 50
0.0
 51
90.0
 73
     1
 72
     1
 10
180.4559900388853
 20
37.3455891204944
 11
154.4559900388853
 21
37.3455891204944
 72
     2
 10
154.4559900388853
 20
34.8455891204944
 40
2.5
 50
90.0
 51
180.0
 73
     1
 72
     1
 10
151.9559900388853
 20
34.8455891204944
 11
151.9559900388853
 21
-0.1544108795055976
 72
     2
 10
154.4559900388853
 20
-0.1544108795055976
 40
2.5
 50
180.0
 51
270.0
 73
     1
 72
     1
 10
154.4559900388853
 20
-2.654410879505598
 11
180.4559900388853
 21
-2.654410879505598
 72
     2
 10
180.4559900388853
 20
-0.1544108795055976
 40
2.5
 50
270.0
 51
360.0
 73
     1
 72
     1
 10
182.9559900388853
 20
-0.1544108795055976
 11
182.9559900388853
 21
34.8455891204944
 97
        8
330
16A
330
56
330
169
330
55
330
16B
330
58
330
168
330
57
 92
       16
 93
        8
 72
     2
 10
154.4559900388853
 20
-0.1544108795055976
 40
0.5
 50
180.0
 51
270.0
 73
     1
 72
     1
 10
154.4559900388853
 20
-0.6544108795055976
 11
180.4559900388853
 21
-0.6544108795055976
 72
     2
 10
180.4559900388853
 20
-0.1544108795055976
 40
0.5
 50
270.0
 51
360.0
 73
     1
 72
     1
 10
180.9559900388853
 20
-0.1544108795055976
 11
180.9559900388853
 21
34.8455891204944
 72
     2
 10
180.4559900388853
 20
34.8455891204944
 40
0.5
 50
0.0
 51
90.0
 73
     1
 72
     1
 10
180.4559900388853
 20
35.3455891204944
 11
154.4559900388853
 21
35.3455891204944
 72
     2
 10
154.4559900388853
 20
34.8455891204944
 40
0.5
 50
90.0
 51
180.0
 73
     1
 72
     1
 10
153.9559900388853
 20
34.8455891204944
 11
153.9559900388853
 21
-0.1544108795055976
 97
        8
330
16C
330
54
330
16D
330
53
330
16E
330
52
330
16F
330
51
 75
     0
 76
     1
 98
        1
 10
0.0
 20
0.0
  0
HATCH
  5
18A
330
1F
100
AcDbEntity
  8
1
  6
Continuous
 62
     3
100
AcDbHatch
 10
0.0
 20
0.0
 30
0.0
210
0.0
220
0.0
230
1.0
  2
SOLID
 70
     1
 71
     1
 91
        1
 92
        1
 93
       20
 72
     1
 10
238.4559900388853
 20
18.84558912049439
 11
238.4559900388853
 21
-26.65441087950561
 72
     2
 10
236.4559900388853
 20
-26.65441087950561
 40
2.0
 50
0.0
 51
90.0
 73
     0
 72
     1
 10
236.4559900388853
 20
-28.65441087950561
 11
230.4559900388853
 21
-28.65441087950561
 72
     2
 10
230.4559900388853
 20
-26.65441087950561
 40
2.0
 50
90.0
 51
180.0
 73
     0
 72
     1
 10
228.4559900388853
 20
-26.65441087950561
 11
228.4559900388853
 21
-18.65441087950561
 72
     1
 10
228.4559900388853
 20
-18.65441087950561
 11
229.9559900388853
 21
-18.65441087950561
 72
     1
 10
229.9559900388853
 20
-18.65441087950561
 11
229.9559900388853
 21
-26.65441087950561
 72
     2
 10
230.4559900388853
 20
-26.65441087950561
 40
0.5
 50
180.0
 51
270.0
 73
     1
 72
     1
 10
230.4559900388853
 20
-27.15441087950561
 11
236.4559900388853
 21
-27.15441087950561
 72
     2
 10
236.4559900388853
 20
-26.65441087950561
 40
0.5
 50
270.0
 51
360.0
 73
     1
 72
     1
 10
236.9559900388853
 20
-26.65441087950561
 11
236.9559900388853
 21
18.84558912049439
 72
     2
 10
236.4559900388853
 20
18.84558912049439
 40
0.5
 50
0.0
 51
90.0
 73
     1
 72
     1
 10
236.4559900388853
 20
19.34558912049439
 11
220.7501130697414
 21
19.34558912049439
 72
     2
 10
220.7501130697414
 20
18.84558912049439
 40
0.5
 50
90.0
 51
170.0
 73
     1
 72
     1
 10
220.2577091932353
 20
18.93241320932785
 11
219.4332016684036
 21
8.585116853993988
 72
     1
 10
219.4332016684036
 20
8.585116853993988
 11
217.9559900388853
 21
8.845589120494388
 72
     1
 10
217.9559900388853
 20
8.845589120494388
 11
218.780497563717
 21
19.19288547582825
 72
     2
 10
220.7501130697414
 20
18.84558912049439
 40
2.0
 50
190.0
 51
270.0
 73
     0
 72
     1
 10
220.7501130697414
 20
20.84558912049439
 11
236.4559900388853
 21
20.84558912049439
 72
     2
 10
236.4559900388853
 20
18.84558912049439
 40
2.0
 50
270.0
 51
360.0
 73
     0
 97
       20
330
4D
330
160
330
4E
330
4F
330
50
330
167
330
45
330
166
330
46
330
164
330
47
330
165
330
48
330
49
330
4A
330
163
330
4B
330
162
330
4C
330
161
 75
     0
 76
     1
 98
        1
 10
0.0
 20
0.0
  0
ENDSEC
  0
SECTION
  2
OBJECTS
  0
DICTIONARY
  5
C
330
0
100
AcDbDictionary
281
     1
  3
ACAD_GROUP
350
D
  3
ACAD_LAYOUT
350
1A
  3
ACAD_MLINESTYLE
350
17
  3
ACAD_PLOTSETTINGS
350
19
  3
ACAD_PLOTSTYLENAME
350
E
  0
DICTIONARY
  5
D
102
{ACAD_REACTORS
330
C
102
}
330
C
100
AcDbDictionary
281
     1
  0
DICTIONARY
  5
1A
102
{ACAD_REACTORS
330
C
102
}
330
C
100
AcDbDictionary
281
     1
  3
Layout1
350
1E
  3
Layout2
350
26
  3
Model
350
22
  0
DICTIONARY
  5
17
102
{ACAD_REACTORS
330
C
102
}
330
C
100
AcDbDictionary
281
     1
  3
Standard
350
18
  0
DICTIONARY
  5
19
102
{ACAD_REACTORS
330
C
102
}
330
C
100
AcDbDictionary
281
     1
  0
ACDBDICTIONARYWDFLT
  5
E
102
{ACAD_REACTORS
330
C
102
}
330
C
100
AcDbDictionary
281
     1
  3
Normal
350
F
100
AcDbDictionaryWithDefault
340
F
  0
LAYOUT
  5
1E
102
{ACAD_REACTORS
330
1A
102
}
330
1A
100
AcDbPlotSettings
  1

  2

  4

  6

 40
0.0
 41
0.0
 42
0.0
 43
0.0
 44
0.0
 45
0.0
 46
0.0
 47
0.0
 48
0.0
 49
0.0
140
0.0
141
0.0
142
1.0
143
1.0
 70
   688
 72
     0
 73
     0
 74
     5
  7

 75
    16
 76
     0
 77
     2
 78
   300
147
1.0
148
0.0
149
0.0
100
AcDbLayout
  1
Layout1
 70
     1
 71
     1
 10
0.0
 20
0.0
 11
0.0
 21
0.0
 12
0.0
 22
0.0
 32
0.0
 14
0.0
 24
0.0
 34
0.0
 15
0.0
 25
0.0
 35
0.0
146
0.0
 13
0.0
 23
0.0
 33
0.0
 16
1.0
 26
0.0
 36
0.0
 17
0.0
 27
1.0
 37
0.0
 76
     0
330
1B
  0
LAYOUT
  5
26
102
{ACAD_REACTORS
330
1A
102
}
330
1A
100
AcDbPlotSettings
  1

  2

  4

  6

 40
0.0
 41
0.0
 42
0.0
 43
0.0
 44
0.0
 45
0.0
 46
0.0
 47
0.0
 48
0.0
 49
0.0
140
0.0
141
0.0
142
1.0
143
1.0
 70
   688
 72
     0
 73
     0
 74
     5
  7

 75
    16
 76
     0
 77
     2
 78
   300
147
1.0
148
0.0
149
0.0
100
AcDbLayout
  1
Layout2
 70
     1
 71
     2
 10
0.0
 20
0.0
 11
0.0
 21
0.0
 12
0.0
 22
0.0
 32
0.0
 14
0.0
 24
0.0
 34
0.0
 15
0.0
 25
0.0
 35
0.0
146
0.0
 13
0.0
 23
0.0
 33
0.0
 16
1.0
 26
0.0
 36
0.0
 17
0.0
 27
1.0
 37
0.0
 76
     0
330
23
  0
LAYOUT
  5
22
102
{ACAD_REACTORS
330
1A
102
}
330
1A
100
AcDbPlotSettings
  1

  2

  4

  6

 40
0.0
 41
0.0
 42
0.0
 43
0.0
 44
0.0
 45
0.0
 46
0.0
 47
0.0
 48
0.0
 49
0.0
140
0.0
141
0.0
142
1.0
143
1.0
 70
  1712
 72
     0
 73
     0
 74
     0
  7

 75
     0
 76
     0
 77
     2
 78
   300
147
1.0
148
0.0
149
0.0
100
AcDbLayout
  1
Model
 70
     1
 71
     0
 10
0.0
 20
0.0
 11
0.0
 21
0.0
 12
0.0
 22
0.0
 32
0.0
 14
142.9559900388853
 24
-33.59910575428241
 34
0.0
 15
266.9559900388853
 25
48.8455891204944
 35
0.0
146
0.0
 13
0.0
 23
0.0
 33
0.0
 16
1.0
 26
0.0
 36
0.0
 17
0.0
 27
1.0
 37
0.0
 76
     0
330
1F
  0
MLINESTYLE
  5
18
102
{ACAD_REACTORS
330
17
102
}
330
17
100
AcDbMlineStyle
  2
Standard
 70
     0
  3

 62
   256
 51
90.0
 52
90.0
 71
     2
 49
0.5
 62
   256
  6
BYLAYER
 49
-0.5
 62
   256
  6
BYLAYER
  0
ACDBPLACEHOLDER
  5
F
102
{ACAD_REACTORS
330
E
102
}
330
E
  0
ENDSEC
  0
EOF
