  0
SECTION
  2
HEADER
  9
$ACADVER
  1
AC1018
  9
$ACADMAINTVER
 70
     0
  9
$DWGCODEPAGE
  3
ANSI_1252
  9
$INSBASE
 10
0.0
 20
0.0
 30
0.0
  9
$EXTMIN
 10
-65.5679934267556
 20
-28.12780486113309
 30
0.0
  9
$EXTMAX
 10
73.43322449661126
 20
50.11595667671577
 30
0.0
  9
$LIMMIN
 10
0.0
 20
0.0
  9
$LIMMAX
 10
12.0
 20
9.0
  9
$ORTHOMODE
 70
     0
  9
$REGENMODE
 70
     1
  9
$FILLMODE
 70
     1
  9
$QTEXTMODE
 70
     0
  9
$MIRRTEXT
 70
     1
  9
$LTSCALE
 40
1.0
  9
$ATTMODE
 70
     1
  9
$TEXTSIZE
 40
0.2
  9
$TRACEWID
 40
0.05
  9
$TEXTSTYLE
  7
Standard
  9
$CLAYER
  8
0
  9
$CELTYPE
  6
ByLayer
  9
$CECOLOR
 62
   256
  9
$CELTSCALE
 40
1.0
  9
$DISPSILH
 70
     0
  9
$DIMSCALE
 40
1.0
  9
$DIMASZ
 40
0.18
  9
$DIMEXO
 40
0.0625
  9
$DIMDLI
 40
0.38
  9
$DIMRND
 40
0.0
  9
$DIMDLE
 40
0.0
  9
$DIMEXE
 40
0.18
  9
$DIMTP
 40
0.0
  9
$DIMTM
 40
0.0
  9
$DIMTXT
 40
0.18
  9
$DIMCEN
 40
0.09
  9
$DIMTSZ
 40
0.0
  9
$DIMTOL
 70
     0
  9
$DIMLIM
 70
     0
  9
$DIMTIH
 70
     1
  9
$DIMTOH
 70
     1
  9
$DIMSE1
 70
     0
  9
$DIMSE2
 70
     0
  9
$DIMTAD
 70
     0
  9
$DIMZIN
 70
     0
  9
$DIMBLK
  1

  9
$DIMASO
 70
     1
  9
$DIMSHO
 70
     1
  9
$DIMPOST
  1

  9
$DIMAPOST
  1

  9
$DIMALT
 70
     0
  9
$DIMALTD
 70
     2
  9
$DIMALTF
 40
25.4
  9
$DIMLFAC
 40
1.0
  9
$DIMTOFL
 70
     0
  9
$DIMTVP
 40
0.0
  9
$DIMTIX
 70
     0
  9
$DIMSOXD
 70
     0
  9
$DIMSAH
 70
     0
  9
$DIMBLK1
  1

  9
$DIMBLK2
  1

  9
$DIMSTYLE
  2
Standard
  9
$DIMCLRD
 70
     0
  9
$DIMCLRE
 70
     0
  9
$DIMCLRT
 70
     0
  9
$DIMTFAC
 40
1.0
  9
$DIMGAP
 40
0.09
  9
$DIMJUST
 70
     0
  9
$DIMSD1
 70
     0
  9
$DIMSD2
 70
     0
  9
$DIMTOLJ
 70
     1
  9
$DIMTZIN
 70
     0
  9
$DIMALTZ
 70
     0
  9
$DIMALTTZ
 70
     0
  9
$DIMUPT
 70
     0
  9
$DIMDEC
 70
     4
  9
$DIMTDEC
 70
     4
  9
$DIMALTU
 70
     2
  9
$DIMALTTD
 70
     2
  9
$DIMTXSTY
  7
Standard
  9
$DIMAUNIT
 70
     0
  9
$DIMADEC
 70
     0
  9
$DIMALTRND
 40
0.0
  9
$DIMAZIN
 70
     0
  9
$DIMDSEP
 70
    46
  9
$DIMATFIT
 70
     3
  9
$DIMFRAC
 70
     0
  9
$DIMLDRBLK
  1

  9
$DIMLUNIT
 70
     2
  9
$DIMLWD
 70
    -2
  9
$DIMLWE
 70
    -2
  9
$DIMTMOVE
 70
     0
  9
$LUNITS
 70
     2
  9
$LUPREC
 70
     4
  9
$SKETCHINC
 40
0.1
  9
$FILLETRAD
 40
0.5
  9
$AUNITS
 70
     0
  9
$AUPREC
 70
     0
  9
$MENU
  1
.
  9
$ELEVATION
 40
0.0
  9
$PELEVATION
 40
0.0
  9
$THICKNESS
 40
0.0
  9
$LIMCHECK
 70
     0
  9
$CHAMFERA
 40
0.5
  9
$CHAMFERB
 40
0.5
  9
$CHAMFERC
 40
1.0
  9
$CHAMFERD
 40
0.0
  9
$SKPOLY
 70
     0
  9
$TDCREATE
 40
2454483.380280671
  9
$TDUCREATE
 40
2454483.338614005
  9
$TDUPDATE
 40
2454483.380280683
  9
$TDUUPDATE
 40
2454483.338614016
  9
$TDINDWG
 40
0.0000000116
  9
$TDUSRTIMER
 40
0.0000000116
  9
$USRTIMER
 70
     1
  9
$ANGBASE
 50
0.0
  9
$ANGDIR
 70
     0
  9
$PDMODE
 70
     0
  9
$PDSIZE
 40
0.0
  9
$PLINEWID
 40
0.0
  9
$SPLFRAME
 70
     0
  9
$SPLINETYPE
 70
     6
  9
$SPLINESEGS
 70
     8
  9
$HANDSEED
  5
1AC
  9
$SURFTAB1
 70
     6
  9
$SURFTAB2
 70
     6
  9
$SURFTYPE
 70
     6
  9
$SURFU
 70
     6
  9
$SURFV
 70
     6
  9
$UCSBASE
  2

  9
$UCSNAME
  2

  9
$UCSORG
 10
0.0
 20
0.0
 30
0.0
  9
$UCSXDIR
 10
1.0
 20
0.0
 30
0.0
  9
$UCSYDIR
 10
0.0
 20
1.0
 30
0.0
  9
$UCSORTHOREF
  2

  9
$UCSORTHOVIEW
 70
     0
  9
$UCSORGTOP
 10
0.0
 20
0.0
 30
0.0
  9
$UCSORGBOTTOM
 10
0.0
 20
0.0
 30
0.0
  9
$UCSORGLEFT
 10
0.0
 20
0.0
 30
0.0
  9
$UCSORGRIGHT
 10
0.0
 20
0.0
 30
0.0
  9
$UCSORGFRONT
 10
0.0
 20
0.0
 30
0.0
  9
$UCSORGBACK
 10
0.0
 20
0.0
 30
0.0
  9
$PUCSBASE
  2

  9
$PUCSNAME
  2

  9
$PUCSORG
 10
0.0
 20
0.0
 30
0.0
  9
$PUCSXDIR
 10
1.0
 20
0.0
 30
0.0
  9
$PUCSYDIR
 10
0.0
 20
1.0
 30
0.0
  9
$PUCSORTHOREF
  2

  9
$PUCSORTHOVIEW
 70
     0
  9
$PUCSORGTOP
 10
0.0
 20
0.0
 30
0.0
  9
$PUCSORGBOTTOM
 10
0.0
 20
0.0
 30
0.0
  9
$PUCSORGLEFT
 10
0.0
 20
0.0
 30
0.0
  9
$PUCSORGRIGHT
 10
0.0
 20
0.0
 30
0.0
  9
$PUCSORGFRONT
 10
0.0
 20
0.0
 30
0.0
  9
$PUCSORGBACK
 10
0.0
 20
0.0
 30
0.0
  9
$USERI1
 70
     0
  9
$USERI2
 70
     0
  9
$USERI3
 70
     0
  9
$USERI4
 70
     0
  9
$USERI5
 70
     0
  9
$USERR1
 40
14.5
  9
$USERR2
 40
0.0
  9
$USERR3
 40
0.0
  9
$USERR4
 40
0.0
  9
$USERR5
 40
0.0
  9
$WORLDVIEW
 70
     1
  9
$SHADEDGE
 70
     3
  9
$SHADEDIF
 70
    70
  9
$TILEMODE
 70
     1
  9
$MAXACTVP
 70
    64
  9
$PINSBASE
 10
0.0
 20
0.0
 30
0.0
  9
$PLIMCHECK
 70
     0
  9
$PEXTMIN
 10
1.00000000000000E+20
 20
1.00000000000000E+20
 30
1.00000000000000E+20
  9
$PEXTMAX
 10
-1.00000000000000E+20
 20
-1.00000000000000E+20
 30
-1.00000000000000E+20
  9
$PLIMMIN
 10
0.0
 20
0.0
  9
$PLIMMAX
 10
12.0
 20
9.0
  9
$UNITMODE
 70
     0
  9
$VISRETAIN
 70
     1
  9
$PLINEGEN
 70
     0
  9
$PSLTSCALE
 70
     1
  9
$TREEDEPTH
 70
  3020
  9
$CMLSTYLE
  2
Standard
  9
$CMLJUST
 70
     0
  9
$CMLSCALE
 40
1.0
  9
$PROXYGRAPHICS
 70
     1
  9
$MEASUREMENT
 70
     1
  9
$CELWEIGHT
370
    -1
  9
$ENDCAPS
280
     0
  9
$JOINSTYLE
280
     0
  9
$LWDISPLAY
290
     0
  9
$INSUNITS
 70
     1
  9
$HYPERLINKBASE
  1

  9
$STYLESHEET
  1

  9
$XEDIT
290
     1
  9
$CEPSNTYPE
380
     0
  9
$PSTYLEMODE
290
     1
  9
$FINGERPRINTGUID
  2
{D8B6D0D3-BE45-4AAD-8064-E47ECDCECE4B}
  9
$VERSIONGUID
  2
{FAEB1C32-E019-11D5-929B-00C0DF256EC4}
  9
$EXTNAMES
290
     1
  9
$PSVPSCALE
 40
0.0
  9
$OLESTARTUP
290
     0
  9
$SORTENTS
280
   127
  9
$INDEXCTL
280
     0
  9
$HIDETEXT
280
     1
  9
$XCLIPFRAME
290
     0
  9
$HALOGAP
280
     0
  9
$OBSCOLOR
 70
   257
  9
$OBSLTYPE
280
     0
  9
$INTERSECTIONDISPLAY
280
     0
  9
$INTERSECTIONCOLOR
 70
   257
  9
$DIMASSOC
280
     2
  9
$PROJECTNAME
  1

  0
ENDSEC
  0
SECTION
  2
CLASSES
  0
CLASS
  1
ACDBDICTIONARYWDFLT
  2
AcDbDictionaryWithDefault
  3
ObjectDBX Classes
 90
        0
 91
        3
280
     0
281
     0
  0
CLASS
  1

  2
exOdDbCircle
  3

 90
        0
 91
        3
280
     0
281
     1
  0
ENDSEC
  0
SECTION
  2
TABLES
  0
TABLE
  2
VPORT
  5
8
330
0
100
AcDbSymbolTable
 70
     1
  0
VPORT
  5
29
330
8
100
AcDbSymbolTableRecord
100
AcDbViewportTableRecord
  2
*Active
 70
     0
 10
0.0
 20
0.0
 11
1.0
 21
1.0
 12
3.93261553492783
 22
10.99407590779134
 13
0.0
 23
0.0
 14
0.5
 24
0.5
 15
0.5
 25
0.5
 16
0.0
 26
0.0
 36
1.0
 17
0.0
 27
0.0
 37
0.0
 40
95.40362143821064
 41
1.60267857142857
 42
50.0
 43
0.0
 44
0.0
 50
0.0
 51
0.0
 71
     0
 72
   100
 73
     1
 74
     3
 75
     0
 76
     0
 77
     0
 78
     0
281
     0
 65
     1
110
0.0
120
0.0
130
0.0
111
1.0
121
0.0
131
0.0
112
0.0
122
1.0
132
0.0
 79
     0
146
0.0
  0
ENDTAB
  0
TABLE
  2
LTYPE
  5
5
330
0
100
AcDbSymbolTable
 70
     8
  0
LTYPE
  5
14
330
5
100
AcDbSymbolTableRecord
100
AcDbLinetypeTableRecord
  2
ByBlock
 70
     0
  3

 72
    65
 73
     0
 40
0.0
  0
LTYPE
  5
15
330
5
100
AcDbSymbolTableRecord
100
AcDbLinetypeTableRecord
  2
ByLayer
 70
     0
  3

 72
    65
 73
     0
 40
0.0
  0
LTYPE
  5
16
330
5
100
AcDbSymbolTableRecord
100
AcDbLinetypeTableRecord
  2
Continuous
 70
     0
  3
Solid line
 72
    65
 73
     0
 40
0.0
  0
LTYPE
  5
2A
330
5
100
AcDbSymbolTableRecord
100
AcDbLinetypeTableRecord
  2
DASHED
 70
     0
  3
Dashed
 72
    65
 73
     2
 40
15.0
 49
7.0
 74
     0
 49
-8.0
 74
     0
  0
LTYPE
  5
2B
330
5
100
AcDbSymbolTableRecord
100
AcDbLinetypeTableRecord
  2
DOTTED
 70
     0
  3
Dotted
 72
    65
 73
     2
 40
1.0
 49
0.0
 74
     0
 49
-1.0
 74
     0
  0
LTYPE
  5
2C
330
5
100
AcDbSymbolTableRecord
100
AcDbLinetypeTableRecord
  2
DOT_CENTER
 70
     0
  3
Dot_Center
 72
    65
 73
     4
 40
14.0
 49
12.0
 74
     0
 49
-1.0
 74
     0
 49
0.0
 74
     0
 49
-1.0
 74
     0
  0
LTYPE
  5
2D
330
5
100
AcDbSymbolTableRecord
100
AcDbLinetypeTableRecord
  2
LONG_DASHED
 70
     0
  3
Long_Dashed
 72
    65
 73
     2
 40
15.0
 49
10.0
 74
     0
 49
-5.0
 74
     0
  0
LTYPE
  5
2E
330
5
100
AcDbSymbolTableRecord
100
AcDbLinetypeTableRecord
  2
DASH_CENTER
 70
     0
  3
Dash_Center
 72
    65
 73
     4
 40
14.0
 49
11.0
 74
     0
 49
-1.0
 74
     0
 49
1.0
 74
     0
 49
-1.0
 74
     0
  0
LTYPE
  5
2F
330
5
100
AcDbSymbolTableRecord
100
AcDbLinetypeTableRecord
  2
PHANTOM
 70
     0
  3
Phantom
 72
    65
 73
     6
 40
13.0
 49
10.0
 74
     0
 49
-1.0
 74
     0
 49
0.0
 74
     0
 49
-1.0
 74
     0
 49
0.0
 74
     0
 49
-1.0
 74
     0
  0
LTYPE
  5
30
330
5
100
AcDbSymbolTableRecord
100
AcDbLinetypeTableRecord
  2
CENTER_DASH_DASH
 70
     0
  3
Center_Dash_Dash
 72
    65
 73
     6
 40
14.0
 49
9.0
 74
     0
 49
-1.0
 74
     0
 49
1.0
 74
     0
 49
-1.0
 74
     0
 49
1.0
 74
     0
 49
-1.0
 74
     0
  0
ENDTAB
  0
TABLE
  2
LAYER
  5
2
330
0
100
AcDbSymbolTable
 70
     4
  0
LAYER
  5
10
330
2
100
AcDbSymbolTableRecord
100
AcDbLayerTableRecord
  2
0
 70
     0
 62
     7
  6
Continuous
370
    -3
390
F
  0
LAYER
  5
31
330
2
100
AcDbSymbolTableRecord
100
AcDbLayerTableRecord
  2
01TNR-01
 70
     0
 62
     7
  6
Continuous
370
    -3
390
F
  0
LAYER
  5
32
330
2
100
AcDbSymbolTableRecord
100
AcDbLayerTableRecord
  2
1
 70
     0
 62
     7
  6
Continuous
370
    -3
390
F
  0
LAYER
  5
33
330
2
100
AcDbSymbolTableRecord
100
AcDbLayerTableRecord
  2
STAHL
 70
     0
 62
     7
  6
Continuous
370
    -3
390
F
  0
ENDTAB
  0
TABLE
  2
STYLE
  5
3
330
0
100
AcDbSymbolTable
 70
     1
  0
STYLE
  5
11
330
3
100
AcDbSymbolTableRecord
100
AcDbTextStyleTableRecord
  2
Standard
 70
     0
 40
0.0
 41
1.0
 50
0.0
 71
     0
 42
0.2
  3
txt
  4

  0
ENDTAB
  0
TABLE
  2
VIEW
  5
6
330
0
100
AcDbSymbolTable
 70
     0
  0
ENDTAB
  0
TABLE
  2
UCS
  5
7
330
0
100
AcDbSymbolTable
 70
     0
  0
ENDTAB
  0
TABLE
  2
APPID
  5
9
330
0
100
AcDbSymbolTable
 70
     1
  0
APPID
  5
12
330
9
100
AcDbSymbolTableRecord
100
AcDbRegAppTableRecord
  2
ACAD
 70
     0
  0
ENDTAB
  0
TABLE
  2
DIMSTYLE
  5
A
330
0
100
AcDbSymbolTable
 70
     1
100
AcDbDimStyleTable
  0
DIMSTYLE
105
27
330
A
100
AcDbSymbolTableRecord
100
AcDbDimStyleTableRecord
  2
Standard
 70
     0
340
11
  0
ENDTAB
  0
TABLE
  2
BLOCK_RECORD
  5
1
330
0
100
AcDbSymbolTable
 70
     1
  0
BLOCK_RECORD
  5
1F
330
1
100
AcDbSymbolTableRecord
100
AcDbBlockTableRecord
  2
*Model_Space
340
22
  0
BLOCK_RECORD
  5
1B
330
1
100
AcDbSymbolTableRecord
100
AcDbBlockTableRecord
  2
*Paper_Space
340
1E
  0
BLOCK_RECORD
  5
23
330
1
100
AcDbSymbolTableRecord
100
AcDbBlockTableRecord
  2
*Paper_Space0
340
26
  0
ENDTAB
  0
ENDSEC
  0
SECTION
  2
BLOCKS
  0
BLOCK
  5
20
330
1F
100
AcDbEntity
  8
0
100
AcDbBlockBegin
  2
*Model_Space
 70
     0
 71
     0
 10
0.0
 20
0.0
 30
0.0
  3
*Model_Space
  1

  0
ENDBLK
  5
21
330
1F
100
AcDbEntity
  8
0
100
AcDbBlockEnd
  0
BLOCK
  5
1C
330
1B
100
AcDbEntity
 67
     1
  8
0
100
AcDbBlockBegin
  2
*Paper_Space
 70
     0
 71
     0
 10
0.0
 20
0.0
 30
0.0
  3
*Paper_Space
  1

  0
ENDBLK
  5
1D
330
1B
100
AcDbEntity
 67
     1
  8
0
100
AcDbBlockEnd
  0
BLOCK
  5
24
330
23
100
AcDbEntity
  8
0
100
AcDbBlockBegin
  2
*Paper_Space0
 70
     0
 71
     0
 10
0.0
 20
0.0
 30
0.0
  3
*Paper_Space0
  1

  0
ENDBLK
  5
25
330
23
100
AcDbEntity
  8
0
100
AcDbBlockEnd
  0
ENDSEC
  0
SECTION
  2
ENTITIES
  0
POINT
  5
34
330
1F
100
AcDbEntity
  8
1
 62
     3
 60
     1
100
AcDbPoint
 10
-35.06799347825879
 20
-19.88404326148054
 30
0.0
  0
LINE
  5
35
330
1F
100
AcDbEntity
  8
1
  6
Continuous
 62
     7
100
AcDbLine
 10
-1.51684799164991
 20
-20.7639136951949
 30
0.0
 11
-4.96412042922731
 21
-22.33492625497263
 31
0.0
  0
LINE
  5
36
330
1F
100
AcDbEntity
  8
1
  6
Continuous
 62
     7
100
AcDbLine
 10
-13.89246336738461
 20
-22.64671086065903
 30
0.0
 11
-15.29331173999429
 21
-22.69562956377183
 31
0.0
  0
LINE
  5
37
330
1F
100
AcDbEntity
  8
1
  6
Continuous
 62
     7
100
AcDbLine
 10
-15.29331173999429
 20
-22.69562956377183
 30
0.0
 11
-20.56799347825879
 21
-22.87982550889603
 31
0.0
  0
LINE
  5
38
330
1F
100
AcDbEntity
  8
1
  6
Continuous
 62
     7
100
AcDbLine
 10
-15.46799347825859
 20
-15.6974627743964
 30
0.0
 11
-5.20841690614481
 21
-15.3391904658389
 31
0.0
  0
LINE
  5
39
330
1F
100
AcDbEntity
  8
1
  6
Continuous
 62
     7
100
AcDbLine
 10
-20.56799347825879
 20
-22.87982550889603
 30
0.0
 11
-23.56799347825879
 21
-22.98458781737122
 31
0.0
  0
LINE
  5
3A
330
1F
100
AcDbEntity
  8
1
  6
Continuous
 62
     7
100
AcDbLine
 10
-21.06799347825879
 20
-15.89301908355014
 30
0.0
 11
-15.46799347825859
 21
-15.6974627743964
 31
0.0
  0
LINE
  5
3B
330
1F
100
AcDbEntity
  8
1
  6
DOT_CENTER
 62
     2
100
AcDbLine
 10
-43.23105686190471
 20
-19.88404326148054
 30
0.0
 11
-31.06799347825879
 21
-19.88404326148054
 31
0.0
  0
LINE
  5
3C
330
1F
100
AcDbEntity
  8
1
  6
Continuous
 62
     7
100
AcDbLine
 10
-23.56799347825879
 20
-24.93642441571808
 30
0.0
 11
-27.56799347825879
 21
-24.93642441571808
 31
0.0
  0
LINE
  5
3D
330
1F
100
AcDbEntity
  8
1
  6
DASHED
 62
     2
100
AcDbLine
 10
-23.56799347825879
 20
-22.98458781737122
 30
0.0
 11
-27.56799347825879
 21
-23.12427089533821
 31
0.0
  0
LINE
  5
3E
330
1F
100
AcDbEntity
  8
1
  6
Continuous
 62
     2
100
AcDbLine
 10
-23.56799347825879
 20
-22.28416113636206
 30
0.0
 11
-3.29963005482838
 21
-21.57637428927785
 31
0.0
  0
LINE
  5
3F
330
1F
100
AcDbEntity
  8
1
  6
Continuous
 62
     2
100
AcDbLine
 10
-23.56799347825879
 20
-16.68074768828865
 30
0.0
 11
-3.4950672363625
 21
-15.97978565797087
 31
0.0
  0
LINE
  5
40
330
1F
100
AcDbEntity
  8
1
  6
Continuous
 62
     7
100
AcDbLine
 10
-23.56799347825879
 20
-15.98032100727949
 30
0.0
 11
-21.06799347825879
 21
-15.89301908355014
 31
0.0
  0
LINE
  5
41
330
1F
100
AcDbEntity
  8
1
  6
Continuous
 62
     7
100
AcDbLine
 10
-27.56799347825879
 20
-14.93642441571808
 30
0.0
 11
-23.56799347825879
 21
-14.93642441571808
 31
0.0
  0
LINE
  5
42
330
1F
100
AcDbEntity
  8
1
  6
Continuous
 62
     7
100
AcDbLine
 10
-27.56799347825879
 20
-16.12000408524648
 30
0.0
 11
-27.56799347825879
 21
-14.93642441571808
 31
0.0
  0
LINE
  5
43
330
1F
100
AcDbEntity
  8
1
  6
DASHED
 62
     2
100
AcDbLine
 10
-27.56799347825879
 20
-16.12000408524648
 30
0.0
 11
-23.56799347825879
 21
-15.98032100727949
 31
0.0
  0
LINE
  5
44
330
1F
100
AcDbEntity
  8
1
  6
Continuous
 62
     7
100
AcDbLine
 10
-27.56799347825879
 20
-16.82043076625564
 30
0.0
 11
-27.56799347825879
 21
-16.12000408524648
 31
0.0
  0
LINE
  5
45
330
1F
100
AcDbEntity
  8
1
  6
DASHED
 62
     2
100
AcDbLine
 10
-27.56799347825879
 20
-16.82043076625564
 30
0.0
 11
-23.56799347825879
 21
-16.68074768828865
 31
0.0
  0
LINE
  5
46
330
1F
100
AcDbEntity
  8
1
  6
Continuous
 62
     7
100
AcDbLine
 10
-27.56799347825879
 20
-22.42384421432905
 30
0.0
 11
-27.56799347825879
 21
-16.82043076625564
 31
0.0
  0
LINE
  5
47
330
1F
100
AcDbEntity
  8
1
  6
DASHED
 62
     2
100
AcDbLine
 10
-27.56799347825879
 20
-22.42384421432905
 30
0.0
 11
-23.56799347825879
 21
-22.28416113636206
 31
0.0
  0
LINE
  5
48
330
1F
100
AcDbEntity
  8
1
  6
Continuous
 62
     7
100
AcDbLine
 10
-27.56799347825879
 20
-23.12427089533821
 30
0.0
 11
-27.56799347825879
 21
-22.42384421432905
 31
0.0
  0
LINE
  5
49
330
1F
100
AcDbEntity
  8
1
  6
Continuous
 62
     7
100
AcDbLine
 10
-27.56799347825879
 20
-23.12427089533821
 30
0.0
 11
-29.47195624257898
 21
-23.19075874015198
 31
0.0
  0
LINE
  5
4A
330
1F
100
AcDbEntity
  8
1
  6
Continuous
 62
     7
100
AcDbLine
 10
-27.56799347825879
 20
-24.93642441571808
 30
0.0
 11
-27.56799347825879
 21
-23.12427089533821
 31
0.0
  0
LINE
  5
4B
330
1F
100
AcDbEntity
  8
1
  6
Continuous
 62
     7
100
AcDbLine
 10
-29.7162527194966
 20
-16.19502295101825
 30
0.0
 11
-27.56799347825879
 21
-16.12000408524648
 31
0.0
  0
LINE
  5
4C
330
1F
100
AcDbEntity
  8
1
  6
Continuous
 62
     7
100
AcDbLine
 10
-1.65995355458818
 20
-16.66590654869924
 30
0.0
 11
-1.51684799164991
 21
-20.7639136951949
 31
0.0
  0
LINE
  5
4D
330
1F
100
AcDbEntity
  8
1
  6
Continuous
 62
     7
100
AcDbLine
 10
-4.96412042922731
 20
-22.33492625497263
 30
0.0
 11
-13.89246336738461
 21
-22.64671086065903
 31
0.0
  0
LINE
  5
4E
330
1F
100
AcDbEntity
  8
1
  6
Continuous
 62
     7
100
AcDbLine
 10
-5.20841690614481
 20
-15.3391904658389
 30
0.0
 11
-5.1839872584529
 21
-16.03876404475238
 31
0.0
  0
LINE
  5
4F
330
1F
100
AcDbEntity
  8
1
  6
Continuous
 62
     2
100
AcDbLine
 10
-29.3032817295915
 20
-16.88102836728217
 30
0.0
 11
-27.56799347825879
 21
-16.82043076625564
 31
0.0
  0
LINE
  5
50
330
1F
100
AcDbEntity
  8
1
  6
Continuous
 62
     7
100
AcDbLine
 10
-5.1839872584529
 20
-16.03876404475238
 30
0.0
 11
-4.96412042922731
 21
-22.33492625497263
 31
0.0
  0
LINE
  5
51
330
1F
100
AcDbEntity
  8
1
  6
Continuous
 62
     7
100
AcDbLine
 10
-5.20841690614481
 20
-15.3391904658389
 30
0.0
 11
-1.65995355458818
 21
-16.66590654869924
 31
0.0
  0
LINE
  5
52
330
1F
100
AcDbEntity
  8
1
  6
Continuous
 62
     2
100
AcDbLine
 10
-29.10784454805739
 20
-22.47761699858904
 30
0.0
 11
-27.56799347825879
 21
-22.42384421432905
 31
0.0
  0
LINE
  5
53
330
1F
100
AcDbEntity
  8
1
  6
DOT_CENTER
 62
     2
100
AcDbLine
 10
-43.17645504480001
 20
-20.16719697877829
 30
0.0
 11
-0.2358703003778
 21
-18.66767871707793
 31
0.0
  0
LINE
  5
54
330
1F
100
AcDbEntity
  8
1
  6
DASHED
 62
     2
100
AcDbLine
 10
-32.31799347825879
 20
-10.59641287258921
 30
0.0
 11
-37.81799347825879
 21
-10.59641287258921
 31
0.0
  0
LINE
  5
55
330
1F
100
AcDbEntity
  8
1
  6
Continuous
 62
     7
100
AcDbLine
 10
-39.31799347825879
 20
-12.38404326148054
 30
0.0
 11
-30.81799347825879
 21
-12.38404326148054
 31
0.0
  0
LINE
  5
56
330
1F
100
AcDbEntity
  8
1
  6
DASHED
 62
     2
100
AcDbLine
 10
-37.81799347825879
 20
-10.59641287258921
 30
0.0
 11
-39.31799347825879
 21
-12.38404326148054
 31
0.0
  0
LINE
  5
57
330
1F
100
AcDbEntity
  8
1
  6
DASHED
 62
     2
100
AcDbLine
 10
-37.81799347825879
 20
-9.88404326148054
 30
0.0
 11
-37.81799347825879
 21
-10.59641287258921
 31
0.0
  0
LINE
  5
58
330
1F
100
AcDbEntity
  8
1
  6
Continuous
 62
     7
100
AcDbLine
 10
-30.81799347825879
 20
-12.38404326148054
 30
0.0
 11
-29.06799347825879
 21
-12.38404326148054
 31
0.0
  0
LINE
  5
59
330
1F
100
AcDbEntity
  8
1
  6
DASHED
 62
     2
100
AcDbLine
 10
-32.31799347825879
 20
-10.59641287258921
 30
0.0
 11
-30.81799347825879
 21
-12.38404326148054
 31
0.0
  0
LINE
  5
5A
330
1F
100
AcDbEntity
  8
1
  6
DASHED
 62
     2
100
AcDbLine
 10
-32.31799347825879
 20
-9.88404326148054
 30
0.0
 11
-32.31799347825879
 21
-10.59641287258921
 31
0.0
  0
LINE
  5
5B
330
1F
100
AcDbEntity
  8
1
  6
DOT_CENTER
 62
     2
100
AcDbLine
 10
-35.06799347825879
 20
11.61595673851946
 30
0.0
 11
-35.06799347825879
 21
-28.12780486113309
 31
0.0
  0
LINE
  5
5C
330
1F
100
AcDbEntity
  8
1
  6
Continuous
 62
     7
100
AcDbLine
 10
-29.64534374744841
 20
-13.38404326148054
 30
0.0
 11
-30.64704636580871
 21
-15.11904309055524
 31
0.0
  0
LINE
  5
5D
330
1F
100
AcDbEntity
  8
1
  6
Continuous
 62
     7
100
AcDbLine
 10
-40.49064320906919
 20
-13.38404326148054
 30
0.0
 11
-29.64534374744841
 21
-13.38404326148054
 31
0.0
  0
LINE
  5
5E
330
1F
100
AcDbEntity
  8
1
  6
Continuous
 62
     7
100
AcDbLine
 10
-40.49064320906919
 20
-13.38404326148054
 30
0.0
 11
-39.48894059070901
 21
-15.11904309055524
 31
0.0
  0
LINE
  5
5F
330
1F
100
AcDbEntity
  8
1
  6
Continuous
 62
     7
100
AcDbLine
 10
-29.06799347825879
 20
-12.38404326148054
 30
0.0
 11
-29.64534374744841
 21
-13.38404326148054
 31
0.0
  0
LINE
  5
60
330
1F
100
AcDbEntity
  8
1
  6
Continuous
 62
     7
100
AcDbLine
 10
-29.06799347825879
 20
-12.38404326148054
 30
0.0
 11
-28.06799347825879
 21
-12.38404326148054
 31
0.0
  0
LINE
  5
61
330
1F
100
AcDbEntity
  8
1
  6
Continuous
 62
     7
100
AcDbLine
 10
-41.06799347825879
 20
-12.38404326148054
 30
0.0
 11
-39.31799347825879
 21
-12.38404326148054
 31
0.0
  0
LINE
  5
62
330
1F
100
AcDbEntity
  8
1
  6
Continuous
 62
     7
100
AcDbLine
 10
-41.06799347825879
 20
-12.38404326148054
 30
0.0
 11
-40.49064320906919
 21
-13.38404326148054
 31
0.0
  0
LINE
  5
63
330
1F
100
AcDbEntity
  8
1
  6
Continuous
 62
     7
100
AcDbLine
 10
-42.06799347825879
 20
-9.88404326148054
 30
0.0
 11
-42.06799347825879
 21
-12.38404326148054
 31
0.0
  0
LINE
  5
64
330
1F
100
AcDbEntity
  8
1
  6
Continuous
 62
     7
100
AcDbLine
 10
-28.06799347825879
 20
-12.38404326148054
 30
0.0
 11
-28.06799347825879
 21
-9.88404326148054
 31
0.0
  0
LINE
  5
65
330
1F
100
AcDbEntity
  8
1
  6
Continuous
 62
     7
100
AcDbLine
 10
-42.06799347825879
 20
-12.38404326148054
 30
0.0
 11
-41.06799347825879
 21
-12.38404326148054
 31
0.0
  0
LINE
  5
66
330
1F
100
AcDbEntity
  8
01TNR-01
  6
Continuous
 62
     7
100
AcDbLine
 10
-26.5679934669281
 20
-6.38404326508567
 30
0.0
 11
-26.5679934669281
 21
0.1159567282192
 31
0.0
  0
LINE
  5
67
330
1F
100
AcDbEntity
  8
01TNR-01
  6
Continuous
 62
     7
100
AcDbLine
 10
-24.06799346950319
 20
-6.88404326457066
 30
0.0
 11
-26.06799346744319
 21
-6.88404326457066
 31
0.0
  0
LINE
  5
68
330
1F
100
AcDbEntity
  8
01TNR-01
  6
Continuous
 62
     7
100
AcDbLine
 10
-23.56799347001859
 20
-5.88404326560067
 30
0.0
 11
-23.56799347001859
 21
-6.38404326508567
 31
0.0
  0
LINE
  5
69
330
1F
100
AcDbEntity
  8
01TNR-01
  6
Continuous
 62
     7
100
AcDbLine
 10
-21.5679934720786
 20
-6.38404326508567
 30
0.0
 11
-21.5679934720786
 21
-5.88404326560067
 31
0.0
  0
LINE
  5
6A
330
1F
100
AcDbEntity
  8
01TNR-01
  6
Continuous
 62
     7
100
AcDbLine
 10
-19.0679934746538
 20
-6.88404326457089
 30
0.0
 11
-21.0679934725936
 21
-6.88404326457089
 31
0.0
  0
LINE
  5
6B
330
1F
100
AcDbEntity
  8
01TNR-01
  6
Continuous
 62
     7
100
AcDbLine
 10
-18.56799347516881
 20
-3.36317363974797
 30
0.0
 11
-18.56799347516881
 21
-6.38404326508567
 31
0.0
  0
LINE
  5
6C
330
1F
100
AcDbEntity
  8
01TNR-01
  6
Continuous
 62
     7
100
AcDbLine
 10
-47.6679934451939
 20
-6.88404326457089
 30
0.0
 11
-55.75851841754908
 21
-6.88404326457066
 31
0.0
  0
LINE
  5
6D
330
1F
100
AcDbEntity
  8
01TNR-01
  6
Continuous
 62
     7
100
AcDbLine
 10
-47.1679934457089
 20
0.81595672749802
 30
0.0
 11
-47.1679934457089
 21
-6.38404326508567
 31
0.0
  0
LINE
  5
6E
330
1F
100
AcDbEntity
  8
01TNR-01
  6
Continuous
 62
     7
100
AcDbLine
 10
-57.06799343551128
 20
1.31595672698279
 30
0.0
 11
-47.6679934451939
 21
1.31595672698279
 31
0.0
  0
LINE
  5
6F
330
1F
100
AcDbEntity
  8
01TNR-01
  6
Continuous
 62
     7
100
AcDbLine
 10
-57.56799343499631
 20
-1.10912605288388
 30
0.0
 11
-57.56799343499631
 21
0.81595672749802
 31
0.0
  0
LINE
  5
70
330
1F
100
AcDbEntity
  8
01TNR-01
  6
Continuous
 62
     7
100
AcDbLine
 10
-28.667993464765
 20
1.31595672698279
 30
0.0
 11
-45.06799344787208
 21
1.31595672698279
 31
0.0
  0
LINE
  5
71
330
1F
100
AcDbEntity
  8
01TNR-01
  6
Continuous
 62
     7
100
AcDbLine
 10
-28.16799346528001
 20
-6.38404326508567
 30
0.0
 11
-28.16799346528001
 21
0.81595672749802
 31
0.0
  0
LINE
  5
72
330
1F
100
AcDbEntity
  8
01TNR-01
  6
Continuous
 62
     7
100
AcDbLine
 10
-45.06799344787208
 20
-6.88404326457089
 30
0.0
 11
-28.667993464765
 21
-6.88404326457089
 31
0.0
  0
LINE
  5
73
330
1F
100
AcDbEntity
  8
01TNR-01
  6
Continuous
 62
     7
100
AcDbLine
 10
-45.56799344735711
 20
0.81595672749802
 30
0.0
 11
-45.56799344735711
 21
-6.38404326508567
 31
0.0
  0
LINE
  5
74
330
1F
100
AcDbEntity
  8
01TNR-01
  6
Continuous
 62
     7
100
AcDbLine
 10
-47.6679934451939
 20
35.71595669154874
 30
0.0
 11
-57.06799343551128
 21
35.71595669154874
 31
0.0
  0
LINE
  5
75
330
1F
100
AcDbEntity
  8
01TNR-01
  6
Continuous
 62
     7
100
AcDbLine
 10
-47.1679934457089
 20
46.61595668032112
 30
0.0
 11
-47.1679934457089
 21
36.21595669103363
 31
0.0
  0
LINE
  5
76
330
1F
100
AcDbEntity
  8
01TNR-01
  6
Continuous
 62
     7
100
AcDbLine
 10
-55.75851841754849
 20
47.11595667980589
 30
0.0
 11
-47.6679934451939
 21
47.11595667980589
 31
0.0
  0
LINE
  5
77
330
1F
100
AcDbEntity
  8
01TNR-01
  6
Continuous
 62
     7
100
AcDbLine
 10
-57.56799343499631
 20
36.21595669103363
 30
0.0
 11
-57.56799343499631
 21
41.14732971935712
 31
0.0
  0
LINE
  5
78
330
1F
100
AcDbEntity
  8
01TNR-01
  6
Continuous
 62
     7
100
AcDbLine
 10
-27.79125498732711
 20
47.11595667980589
 30
0.0
 11
-45.06799344787208
 21
47.11595667980589
 31
0.0
  0
LINE
  5
79
330
1F
100
AcDbEntity
  8
01TNR-01
  6
Continuous
 62
     7
100
AcDbLine
 10
-25.75973784461721
 20
36.28905175544333
 30
0.0
 11
-27.29662673192308
 21
46.68905174473059
 31
0.0
  0
LINE
  5
7A
330
1F
100
AcDbEntity
  8
01TNR-01
  6
Continuous
 62
     7
100
AcDbLine
 10
-45.06799344787208
 20
35.71595669154874
 30
0.0
 11
-26.25436610002109
 21
35.71595669154863
 31
0.0
  0
LINE
  5
7B
330
1F
100
AcDbEntity
  8
01TNR-01
  6
Continuous
 62
     7
100
AcDbLine
 10
-45.56799344735711
 20
46.61595668032112
 30
0.0
 11
-45.56799344735711
 21
36.21595669103363
 31
0.0
  0
LINE
  5
7C
102
{ACAD_REACTORS
330
1AA
330
1AA
102
}
330
1F
100
AcDbEntity
  8
STAHL
  6
Continuous
 62
     7
100
AcDbLine
 10
-42.43056319999619
 20
31.55676969980971
 30
0.0
 11
-54.93056318820379
 21
31.55676969980993
 31
0.0
  0
LINE
  5
7D
102
{ACAD_REACTORS
330
1AA
330
1AA
102
}
330
1F
100
AcDbEntity
  8
STAHL
  6
Continuous
 62
     7
100
AcDbLine
 10
-42.43056319999619
 20
33.55676969792307
 30
0.0
 11
-42.43056319999619
 21
31.55676969980971
 31
0.0
  0
LINE
  5
7E
102
{ACAD_REACTORS
330
1AA
330
1AA
102
}
330
1F
100
AcDbEntity
  8
STAHL
  6
Continuous
 62
     7
100
AcDbLine
 10
-55.43056318773211
 20
33.55676969792307
 30
0.0
 11
-42.43056319999619
 21
33.55676969792307
 31
0.0
  0
LINE
  5
7F
102
{ACAD_REACTORS
330
1AA
330
1AA
102
}
330
1F
100
AcDbEntity
  8
STAHL
  6
Continuous
 62
     7
100
AcDbLine
 10
-56.93056318631679
 20
5.0567697248099
 30
0.0
 11
-56.93056318631679
 21
32.05676969933813
 31
0.0
  0
LINE
  5
80
102
{ACAD_REACTORS
330
1AA
330
1AA
102
}
330
1F
100
AcDbEntity
  8
STAHL
  6
Continuous
 62
     7
100
AcDbLine
 10
-28.43056321320358
 20
3.55676972622484
 30
0.0
 11
-55.43056318773211
 21
3.55676972622484
 31
0.0
  0
LINE
  5
81
102
{ACAD_REACTORS
330
1AA
330
1AA
102
}
330
1F
100
AcDbEntity
  8
STAHL
  6
Continuous
 62
     7
100
AcDbLine
 10
-26.9305632146187
 20
32.05676969933813
 30
0.0
 11
-26.9305632146187
 21
5.0567697248099
 31
0.0
  0
LINE
  5
82
102
{ACAD_REACTORS
330
1AA
330
1AA
102
}
330
1F
100
AcDbEntity
  8
STAHL
  6
Continuous
 62
     7
100
AcDbLine
 10
-41.43056320093939
 20
33.55676969792307
 30
0.0
 11
-28.43056321320358
 21
33.55676969792307
 31
0.0
  0
LINE
  5
83
102
{ACAD_REACTORS
330
1AA
330
1AA
102
}
330
1F
100
AcDbEntity
  8
STAHL
  6
Continuous
 62
     7
100
AcDbLine
 10
-41.43056320093939
 20
31.55676969980971
 30
0.0
 11
-41.43056320093939
 21
33.55676969792307
 31
0.0
  0
LINE
  5
84
102
{ACAD_REACTORS
330
1AA
330
1AA
102
}
330
1F
100
AcDbEntity
  8
STAHL
  6
Continuous
 62
     7
100
AcDbLine
 10
-28.9305632127321
 20
31.55676969980993
 30
0.0
 11
-41.43056320093939
 21
31.55676969980971
 31
0.0
  0
LINE
  5
85
102
{ACAD_REACTORS
330
1AA
330
1AA
102
}
330
1F
100
AcDbEntity
  8
STAHL
  6
Continuous
 62
     7
100
AcDbLine
 10
-28.9305632127321
 20
5.5567697243381
 30
0.0
 11
-28.9305632127321
 21
31.55676969980993
 31
0.0
  0
LINE
  5
86
102
{ACAD_REACTORS
330
1AA
330
1AA
102
}
330
1F
100
AcDbEntity
  8
STAHL
  6
Continuous
 62
     7
100
AcDbLine
 10
-54.93056318820379
 20
5.5567697243381
 30
0.0
 11
-28.9305632127321
 21
5.5567697243381
 31
0.0
  0
LINE
  5
87
102
{ACAD_REACTORS
330
1AA
330
1AA
102
}
330
1F
100
AcDbEntity
  8
STAHL
  6
Continuous
 62
     7
100
AcDbLine
 10
-54.93056318820379
 20
31.55676969980993
 30
0.0
 11
-54.93056318820379
 21
5.5567697243381
 31
0.0
  0
LINE
  5
88
330
1F
100
AcDbEntity
  8
01TNR-01
  6
Continuous
 62
     7
100
AcDbLine
 10
-23.624712301356
 20
11.11595671688804
 30
0.0
 11
-25.5679934679583
 21
11.11595671688826
 31
0.0
  0
LINE
  5
89
330
1F
100
AcDbEntity
  8
01TNR-01
  6
Continuous
 62
     7
100
AcDbLine
 10
-26.38936982659061
 20
33.68923102418103
 30
0.0
 11
-23.1301105706884
 21
11.68923104684222
 31
0.0
  0
LINE
  5
8A
330
1F
100
AcDbEntity
  8
01TNR-01
  6
Continuous
 62
     7
100
AcDbLine
 10
-57.06799343551128
 20
34.11595669319684
 30
0.0
 11
-26.88397155725829
 21
34.11595669319684
 31
0.0
  0
LINE
  5
8B
330
1F
100
AcDbEntity
  8
01TNR-01
  6
Continuous
 62
     7
100
AcDbLine
 10
-57.56799343499631
 20
3.41595672481969
 30
0.0
 11
-57.56799343499631
 21
33.61595669371172
 31
0.0
  0
LINE
  5
8C
330
1F
100
AcDbEntity
  8
01TNR-01
  6
Continuous
 62
     7
100
AcDbLine
 10
-25.2679934682678
 20
2.91595672533447
 30
0.0
 11
-57.06799343551128
 21
2.91595672533447
 31
0.0
  0
LINE
  5
8D
330
1F
100
AcDbEntity
  8
01TNR-01
  6
Continuous
 62
     7
100
AcDbLine
 10
-24.76799346878281
 20
5.31595672286232
 30
0.0
 11
-24.767993468783
 21
3.41595672481969
 31
0.0
  0
LINE
  5
8E
330
1F
100
AcDbEntity
  8
01TNR-01
  6
Continuous
 62
     7
100
AcDbLine
 10
-25.5679934679583
 20
9.11595671894827
 30
0.0
 11
-23.83882477055249
 21
9.11595671894827
 31
0.0
  0
LINE
  5
8F
330
1F
100
AcDbEntity
  8
01TNR-01
  6
Continuous
 62
     7
100
AcDbLine
 10
-15.56799347825879
 20
-0.0044901291111
 30
0.0
 11
-15.56799347825879
 21
-9.38404326199566
 31
0.0
  0
LINE
  5
90
330
1F
100
AcDbEntity
  8
01TNR-01
  6
Continuous
 62
     7
100
AcDbLine
 10
-17.77597333265939
 20
0.70301898328069
 30
0.0
 11
-15.56799347825879
 21
-0.0044901291111
 31
0.0
  0
LINE
  5
91
330
1F
100
AcDbEntity
  8
01TNR-01
  6
Continuous
 62
     7
100
AcDbLine
 10
-21.7679934718731
 20
5.31595672286232
 30
0.0
 11
-21.7679934718731
 21
2.61595672564351
 31
0.0
  0
LINE
  5
92
330
1F
100
AcDbEntity
  8
01TNR-01
  6
Continuous
 62
     7
100
AcDbLine
 10
-15.56799347825879
 20
5.23640358039847
 30
0.0
 11
-17.77597333265939
 21
4.52889446800634
 31
0.0
  0
LINE
  5
93
330
1F
100
AcDbEntity
  8
01TNR-01
  6
Continuous
 62
     7
100
AcDbLine
 10
-15.56799347825879
 20
8.11595671997827
 30
0.0
 11
-15.56799347825879
 21
5.23640358039847
 31
0.0
  0
LINE
  5
94
330
1F
100
AcDbEntity
  8
01TNR-01
  6
Continuous
 62
     7
100
AcDbLine
 10
-19.13661036110321
 20
8.11595671997827
 30
0.0
 11
-15.56799347825879
 21
8.11595671997827
 31
0.0
  0
LINE
  5
95
330
1F
100
AcDbEntity
  8
01TNR-01
  6
Continuous
 62
     7
100
AcDbLine
 10
-23.39813440929129
 20
33.96940803225823
 30
0.0
 11
-19.63121209177061
 21
8.54268238899419
 31
0.0
  0
LINE
  5
96
330
1F
100
AcDbEntity
  8
01TNR-01
  6
Continuous
 62
     7
100
AcDbLine
 10
-2.92846949866751
 20
35.11595669216683
 30
0.0
 11
-22.40893094795641
 21
35.11595669216683
 31
0.0
  0
LINE
  5
97
330
1F
100
AcDbEntity
  8
01TNR-01
  6
Continuous
 62
     7
100
AcDbLine
 10
-2.32225171664291
 20
36.16595669108517
 30
0.0
 11
-2.92846949866751
 21
35.11595669216683
 31
0.0
  0
LINE
  5
98
330
1F
100
AcDbEntity
  8
01TNR-01
  6
Continuous
 62
     7
100
AcDbLine
 10
-3.36799349082571
 20
36.61595669062137
 30
0.0
 11
-2.58205933751049
 21
36.6159566906216
 31
0.0
  0
LINE
  5
99
330
1F
100
AcDbEntity
  8
01TNR-01
  6
Continuous
 62
     7
100
AcDbLine
 10
-3.66799349051681
 20
37.94965916293847
 30
0.0
 11
-3.66799349051681
 21
36.91595669031267
 31
0.0
  0
LINE
  5
9A
330
1F
100
AcDbEntity
  8
01TNR-01
  6
Continuous
 62
     7
100
AcDbLine
 10
1.35687768209851
 20
39.44965916139324
 30
0.0
 11
-2.1679934920619
 21
39.44965916139324
 31
0.0
  0
LINE
  5
9B
330
1F
100
AcDbEntity
  8
01TNR-01
  6
Continuous
 62
     7
100
AcDbLine
 10
1.80512672723981
 20
36.93591239344914
 30
0.0
 11
1.65621322914711
 21
39.16961486483888
 31
0.0
  0
LINE
  5
9C
330
1F
100
AcDbEntity
  8
01TNR-01
  6
Continuous
 62
     7
100
AcDbLine
 10
0.8460723507086
 20
36.6159566906216
 30
0.0
 11
1.50579118019121
 21
36.6159566906216
 31
0.0
  0
LINE
  5
9D
330
1F
100
AcDbEntity
  8
01TNR-01
  6
Continuous
 62
     7
100
AcDbLine
 10
1.1924825118657
 20
35.11595669216661
 30
0.0
 11
0.58626472984099
 21
36.16595669108517
 31
0.0
  0
LINE
  5
9E
330
1F
100
AcDbEntity
  8
01TNR-01
  6
Continuous
 62
     7
100
AcDbLine
 10
3.89756328907799
 20
35.11595669216683
 30
0.0
 11
1.1924825118657
 21
35.11595669216661
 31
0.0
  0
LINE
  5
9F
330
1F
100
AcDbEntity
  8
01TNR-01
  6
Continuous
 62
     7
100
AcDbLine
 10
3.4942385680711
 20
49.18247568820118
 30
0.0
 11
4.39645586749239
 21
35.64921619687937
 31
0.0
  0
LINE
  5
A0
330
1F
100
AcDbEntity
  8
01TNR-01
  6
Continuous
 62
     7
100
AcDbLine
 10
-65.5679934267556
 20
50.11595667671577
 30
0.0
 11
2.4964534112421
 21
50.11595667671577
 31
0.0
  0
LINE
  5
A1
330
1F
100
AcDbEntity
  8
01TNR-01
  6
Continuous
 62
     7
100
AcDbLine
 10
-65.5679934267556
 20
48.2159566786728
 30
0.0
 11
-65.5679934267556
 21
50.11595667671577
 31
0.0
  0
LINE
  5
A2
330
1F
100
AcDbEntity
  8
01TNR-01
  6
Continuous
 62
     7
100
AcDbLine
 10
-63.36799342902171
 20
47.30912789955323
 30
0.0
 11
-65.5679934267556
 21
48.2159566786728
 31
0.0
  0
LINE
  5
A3
330
1F
100
AcDbEntity
  8
01TNR-01
  6
Continuous
 62
     7
100
AcDbLine
 10
-62.76799342963929
 20
47.30912789955323
 30
0.0
 11
-63.36799342902171
 21
47.30912789955323
 31
0.0
  0
LINE
  5
A4
330
1F
100
AcDbEntity
  8
01TNR-01
  6
Continuous
 62
     7
100
AcDbLine
 10
-63.36799342902171
 20
42.9227854641789
 30
0.0
 11
-62.76799342963821
 21
42.92278546417799
 31
0.0
  0
LINE
  5
A5
330
1F
100
AcDbEntity
  8
01TNR-01
  6
Continuous
 62
     7
100
AcDbLine
 10
-65.5679934267556
 20
42.01595668505922
 30
0.0
 11
-63.36799342902171
 21
42.9227854641789
 31
0.0
  0
LINE
  5
A6
330
1F
100
AcDbEntity
  8
01TNR-01
  6
Continuous
 62
     7
100
AcDbLine
 10
-65.5679934267556
 20
40.11595668701648
 30
0.0
 11
-65.5679934267556
 21
42.01595668505922
 31
0.0
  0
LINE
  5
A7
330
1F
100
AcDbEntity
  8
01TNR-01
  6
Continuous
 62
     7
100
AcDbLine
 10
-60.5679934319061
 20
40.11595668701648
 30
0.0
 11
-65.5679934267556
 21
40.11595668701648
 31
0.0
  0
LINE
  5
A8
330
1F
100
AcDbEntity
  8
01TNR-01
  6
Continuous
 62
     7
100
AcDbLine
 10
-60.5679934319061
 20
35.6159566916516
 30
0.0
 11
-60.5679934319061
 21
40.11595668701648
 31
0.0
  0
LINE
  5
A9
330
1F
100
AcDbEntity
  8
01TNR-01
  6
Continuous
 62
     7
100
AcDbLine
 10
-65.36799342696179
 20
35.6159566916516
 30
0.0
 11
-60.5679934319061
 21
35.6159566916516
 31
0.0
  0
LINE
  5
AA
330
1F
100
AcDbEntity
  8
01TNR-01
  6
Continuous
 62
     7
100
AcDbLine
 10
-65.36799342696179
 20
32.61595669474184
 30
0.0
 11
-65.36799342696179
 21
35.6159566916516
 31
0.0
  0
LINE
  5
AB
330
1F
100
AcDbEntity
  8
01TNR-01
  6
Continuous
 62
     7
100
AcDbLine
 10
-64.48220699024739
 20
32.61595669474184
 30
0.0
 11
-65.36799342696179
 21
32.61595669474184
 31
0.0
  0
LINE
  5
AC
330
1F
100
AcDbEntity
  8
01TNR-01
  6
Continuous
 62
     7
100
AcDbLine
 10
-60.5679934319061
 20
32.61595669474173
 30
0.0
 11
-61.65377986841449
 21
32.61595669474184
 31
0.0
  0
LINE
  5
AD
330
1F
100
AcDbEntity
  8
01TNR-01
  6
Continuous
 62
     7
100
AcDbLine
 10
-60.5679934319061
 20
0.91595672739493
 30
0.0
 11
-60.5679934319061
 21
32.61595669474173
 31
0.0
  0
LINE
  5
AE
330
1F
100
AcDbEntity
  8
01TNR-01
  6
Continuous
 62
     7
100
AcDbLine
 10
-60.5679934319061
 20
0.11595672821898
 30
0.0
 11
-60.5679934319061
 21
0.91595672739493
 31
0.0
  0
LINE
  5
AF
330
1F
100
AcDbEntity
  8
01TNR-01
  6
Continuous
 62
     7
100
AcDbLine
 10
-63.56799342881581
 20
0.11595672821898
 30
0.0
 11
-60.5679934319061
 21
0.11595672821898
 31
0.0
  0
LINE
  5
B0
330
1F
100
AcDbEntity
  8
01TNR-01
  6
Continuous
 62
     7
100
AcDbLine
 10
-63.56799342881581
 20
2.11595672615863
 30
0.0
 11
-63.56799342881581
 21
0.11595672821898
 31
0.0
  0
LINE
  5
B1
330
1F
100
AcDbEntity
  8
01TNR-01
  6
Continuous
 62
     7
100
AcDbLine
 10
-64.5679934277857
 20
2.11595672615863
 30
0.0
 11
-63.56799342881581
 21
2.11595672615863
 31
0.0
  0
LINE
  5
B2
330
1F
100
AcDbEntity
  8
01TNR-01
  6
Continuous
 62
     7
100
AcDbLine
 10
-65.5679934267556
 20
-1.78404326982388
 30
0.0
 11
-65.5679934267556
 21
1.11595672718863
 31
0.0
  0
LINE
  5
B3
330
1F
100
AcDbEntity
  8
01TNR-01
  6
Continuous
 62
     7
100
AcDbLine
 10
-63.36799342902191
 20
-2.68404326889697
 30
0.0
 11
-65.5679934267556
 21
-1.78404326982388
 31
0.0
  0
LINE
  5
B4
330
1F
100
AcDbEntity
  8
01TNR-01
  6
Continuous
 62
     7
100
AcDbLine
 10
-62.75542763835651
 20
-2.68404326889697
 30
0.0
 11
-63.36799342902191
 21
-2.68404326889697
 31
0.0
  0
LINE
  5
B5
330
1F
100
AcDbEntity
  8
01TNR-01
  6
Continuous
 62
     7
100
AcDbLine
 10
-63.36799342902191
 20
-7.0840432643646
 30
0.0
 11
-62.75542763835651
 21
-7.0840432643646
 31
0.0
  0
LINE
  5
B6
330
1F
100
AcDbEntity
  8
01TNR-01
  6
Continuous
 62
     7
100
AcDbLine
 10
-65.5679934267556
 20
-7.98404326343757
 30
0.0
 11
-63.36799342902191
 21
-7.0840432643646
 31
0.0
  0
LINE
  5
B7
330
1F
100
AcDbEntity
  8
01TNR-01
  6
Continuous
 62
     7
100
AcDbLine
 10
-65.5679934267556
 20
-9.88404326148031
 30
0.0
 11
-65.5679934267556
 21
-7.98404326343757
 31
0.0
  0
LINE
  5
B8
330
1F
100
AcDbEntity
  8
01TNR-01
  6
Continuous
 62
     7
100
AcDbLine
 10
-16.06799347774378
 20
-9.88404326148054
 30
0.0
 11
-65.5679934267556
 21
-9.88404326148031
 31
0.0
  0
LINE
  5
B9
330
1F
100
AcDbEntity
  8
01TNR-01
  6
Continuous
 62
     7
100
AcDbLine
 10
0.46865718535579
 20
41.44965915933312
 30
0.0
 11
-2.1679927826778
 21
41.44965915933312
 31
0.0
  0
LINE
  5
BA
330
1F
100
AcDbEntity
  8
01TNR-01
  6
Continuous
 62
     7
100
AcDbLine
 10
0.6564632623367
 20
46.64921618554843
 30
0.0
 11
0.96754976377031
 21
41.98291866404577
 31
0.0
  0
LINE
  5
BB
330
1F
100
AcDbEntity
  8
01TNR-01
  6
Continuous
 62
     7
100
AcDbLine
 10
-24.75867449779341
 20
47.11595667980589
 30
0.0
 11
0.15757068392261
 21
47.11595667980589
 31
0.0
  0
LINE
  5
BC
330
1F
100
AcDbEntity
  8
01TNR-01
  6
Continuous
 62
     7
100
AcDbLine
 10
-24.07108053219289
 20
38.54286162415167
 30
0.0
 11
-25.25330275319729
 21
46.54286161591119
 31
0.0
  0
LINE
  5
BD
330
1F
100
AcDbEntity
  8
01TNR-01
  6
Continuous
 62
     7
100
AcDbLine
 10
-6.51422749878679
 20
38.1159566890766
 30
0.0
 11
-23.5764522767893
 21
38.1159566890766
 31
0.0
  0
LINE
  5
BE
330
1F
100
AcDbEntity
  8
01TNR-01
  6
Continuous
 62
     7
100
AcDbLine
 10
2.93200652174122
 20
28.61595673851957
 30
0.0
 11
2.93200652174122
 21
18.61595673851957
 31
0.0
  0
LINE
  5
BF
330
1F
100
AcDbEntity
  8
01TNR-01
  6
Continuous
 62
     7
100
AcDbLine
 10
4.41959212927941
 20
29.11595673851957
 30
0.0
 11
3.43200652174122
 21
29.11595673851957
 31
0.0
  0
LINE
  5
C0
330
1F
100
AcDbEntity
  8
01TNR-01
  6
Continuous
 62
     7
100
AcDbLine
 10
21.93200652174122
 20
29.11595673851957
 30
0.0
 11
4.41959212927941
 21
29.11595673851957
 31
0.0
  0
LINE
  5
C1
330
1F
100
AcDbEntity
  8
01TNR-01
  6
Continuous
 62
     7
100
AcDbLine
 10
21.93200652174122
 20
18.11595673851946
 30
0.0
 11
21.93200652174122
 21
29.11595673851957
 31
0.0
  0
LINE
  5
C2
330
1F
100
AcDbEntity
  8
01TNR-01
  6
Continuous
 62
     7
100
AcDbLine
 10
3.43200652174122
 20
18.11595673851946
 30
0.0
 11
21.93200652174122
 21
18.11595673851946
 31
0.0
  0
LINE
  5
C3
330
1F
100
AcDbEntity
  8
01TNR-01
  6
Continuous
 62
     7
100
AcDbLine
 10
41.74077558587851
 20
28.68905180300442
 30
0.0
 11
43.2185533636563
 21
18.68905180300442
 31
0.0
  0
LINE
  5
C4
330
1F
100
AcDbEntity
  8
01TNR-01
  6
Continuous
 62
     7
100
AcDbLine
 10
23.1320065217412
 20
29.11595673851957
 30
0.0
 11
41.2461473299651
 21
29.11595673851957
 31
0.0
  0
LINE
  5
C5
330
1F
100
AcDbEntity
  8
01TNR-01
  6
Continuous
 62
     7
100
AcDbLine
 10
23.1320065217412
 20
18.11595673851946
 30
0.0
 11
23.1320065217412
 21
29.11595673851957
 31
0.0
  0
LINE
  5
C6
330
1F
100
AcDbEntity
  8
01TNR-01
  6
Continuous
 62
     7
100
AcDbLine
 10
42.7239251077428
 20
18.11595673851946
 30
0.0
 11
23.1320065217412
 21
18.11595673851946
 31
0.0
  0
LINE
  5
C7
330
1F
100
AcDbEntity
  8
01TNR-01
  6
Continuous
 62
     7
100
AcDbLine
 10
63.86940885162369
 20
21.31595673851939
 30
0.0
 11
63.86940885162369
 21
20.61595673851957
 31
0.0
  0
LINE
  5
C8
330
1F
100
AcDbEntity
  8
01TNR-01
  6
Continuous
 62
     7
100
AcDbLine
 10
63.86940885162369
 20
22.11595673851946
 30
0.0
 11
63.86940885162369
 21
21.31595673851939
 31
0.0
  0
LINE
  5
C9
330
1F
100
AcDbEntity
  8
01TNR-01
  6
Continuous
 62
     7
100
AcDbLine
 10
69.50633793070688
 20
23.11595673851957
 30
0.0
 11
64.8694088516238
 21
23.11595673851957
 31
0.0
  0
LINE
  5
CA
330
1F
100
AcDbEntity
  8
01TNR-01
  6
Continuous
 62
     7
100
AcDbLine
 10
69.65548589611922
 20
28.65083497539149
 30
0.0
 11
70.00511995583679
 21
23.65083497539149
 31
0.0
  0
LINE
  5
CB
330
1F
100
AcDbEntity
  8
01TNR-01
  6
Continuous
 62
     7
100
AcDbLine
 10
44.2787278226222
 20
29.11595673851957
 30
0.0
 11
69.1567038709893
 21
29.11595673851957
 31
0.0
  0
LINE
  5
CC
330
1F
100
AcDbEntity
  8
01TNR-01
  6
Continuous
 62
     7
100
AcDbLine
 10
44.9663217889309
 20
20.5428616740345
 30
0.0
 11
43.7840995667088
 21
28.5428616740345
 31
0.0
  0
LINE
  5
CD
330
1F
100
AcDbEntity
  8
01TNR-01
  6
Continuous
 62
     7
100
AcDbLine
 10
46.0033834478393
 20
20.11595673851957
 30
0.0
 11
45.46095004484441
 21
20.11595673851957
 31
0.0
  0
LINE
  5
CE
330
1F
100
AcDbEntity
  8
01TNR-01
  6
Continuous
 62
     7
100
AcDbLine
 10
62.48192665792828
 20
20.11595673851957
 30
0.0
 11
46.0033834478393
 21
20.11595673851957
 31
0.0
  0
LINE
  5
CF
330
1F
100
AcDbEntity
  8
01TNR-01
  6
Continuous
 62
     7
100
AcDbLine
 10
63.3694088516238
 20
20.11595673851957
 30
0.0
 11
62.48192665792828
 21
20.11595673851957
 31
0.0
  0
LINE
  5
D0
330
1F
100
AcDbEntity
  8
01TNR-01
  6
Continuous
 62
     7
100
AcDbLine
 10
-20.56799347825879
 20
-24.38404326148043
 30
0.0
 11
-20.56799347825879
 21
-22.87982550889603
 31
0.0
  0
LINE
  5
D1
330
1F
100
AcDbEntity
  8
01TNR-01
  6
Continuous
 62
     7
100
AcDbLine
 10
-17.5679934782587
 20
-24.88404326148054
 30
0.0
 11
-20.06799347825879
 21
-24.88404326148054
 31
0.0
  0
LINE
  5
D2
330
1F
100
AcDbEntity
  8
01TNR-01
  6
Continuous
 62
     7
100
AcDbLine
 10
-15.56799347825961
 20
-24.88404326148054
 30
0.0
 11
-17.5679934782587
 21
-24.88404326148054
 31
0.0
  0
LINE
  5
D3
330
1F
100
AcDbEntity
  8
01TNR-01
  6
Continuous
 62
     7
100
AcDbLine
 10
-15.56799347825879
 20
-23.38404326148043
 30
0.0
 11
-15.56799347825961
 21
-24.88404326148054
 31
0.0
  0
LINE
  5
D4
330
1F
100
AcDbEntity
  8
01TNR-01
  6
Continuous
 62
     7
100
AcDbLine
 10
-13.56799347825961
 20
-24.88404326148054
 30
0.0
 11
-13.56799347825961
 21
-23.38404326148054
 31
0.0
  0
LINE
  5
D5
330
1F
100
AcDbEntity
  8
01TNR-01
  6
Continuous
 62
     7
100
AcDbLine
 10
-9.06799347825961
 20
-24.88404326148054
 30
0.0
 11
-13.56799347825961
 21
-24.88404326148054
 31
0.0
  0
LINE
  5
D6
330
1F
100
AcDbEntity
  8
01TNR-01
  6
Continuous
 62
     7
100
AcDbLine
 10
-9.06799347825878
 20
-23.38404326148043
 30
0.0
 11
-9.06799347825961
 21
-24.88404326148054
 31
0.0
  0
LINE
  5
D7
330
1F
100
AcDbEntity
  8
01TNR-01
  6
Continuous
 62
     7
100
AcDbLine
 10
-7.06799347825961
 20
-24.88404326148054
 30
0.0
 11
-7.06799347825961
 21
-23.38404326148054
 31
0.0
  0
LINE
  5
D8
330
1F
100
AcDbEntity
  8
01TNR-01
  6
Continuous
 62
     7
100
AcDbLine
 10
-4.0679934782587
 20
-24.88404326148054
 30
0.0
 11
-7.06799347825961
 21
-24.88404326148054
 31
0.0
  0
LINE
  5
D9
330
1F
100
AcDbEntity
  8
01TNR-01
  6
Continuous
 62
     7
100
AcDbLine
 10
-3.56799347825878
 20
-21.6986745473597
 30
0.0
 11
-3.56799347825878
 21
-24.38404326148043
 31
0.0
  0
LINE
  5
DA
330
1F
100
AcDbEntity
  8
01TNR-01
  6
Continuous
 62
     7
100
AcDbLine
 10
66.00338344783927
 20
17.11595673851957
 30
0.0
 11
66.60960123048835
 21
18.16595673851941
 31
0.0
  0
LINE
  5
DB
330
1F
100
AcDbEntity
  8
01TNR-01
  6
Continuous
 62
     7
100
AcDbLine
 10
46.62847137487981
 20
17.11595673851957
 30
0.0
 11
66.00338344783927
 21
17.11595673851957
 31
0.0
  0
LINE
  5
DC
330
1F
100
AcDbEntity
  8
01TNR-01
  6
Continuous
 62
     7
100
AcDbLine
 10
49.40619023392671
 20
-9.45731759202522
 30
0.0
 11
45.63926791252581
 21
15.96940807742999
 31
0.0
  0
LINE
  5
DD
330
1F
100
AcDbEntity
  8
01TNR-01
  6
Continuous
 62
     7
100
AcDbLine
 10
53.4694088516237
 20
-9.88404326148043
 30
0.0
 11
49.90079196510371
 21
-9.88404326148043
 31
0.0
  0
LINE
  5
DE
330
1F
100
AcDbEntity
  8
01TNR-01
  6
Continuous
 62
     7
100
AcDbLine
 10
53.4694088516237
 20
-12.76359640402689
 30
0.0
 11
53.4694088516237
 21
-9.88404326148043
 31
0.0
  0
LINE
  5
DF
330
1F
100
AcDbEntity
  8
01TNR-01
  6
Continuous
 62
     7
100
AcDbLine
 10
51.2614289949494
 20
-13.47110551714741
 30
0.0
 11
53.4694088516237
 21
-12.76359640402689
 31
0.0
  0
LINE
  5
E0
330
1F
100
AcDbEntity
  8
01TNR-01
  6
Continuous
 62
     7
100
AcDbLine
 10
47.26940885162391
 20
-15.38404326148077
 30
0.0
 11
47.26940885162391
 21
-12.68404326148061
 31
0.0
  0
LINE
  5
E1
330
1F
100
AcDbEntity
  8
01TNR-01
  6
Continuous
 62
     7
100
AcDbLine
 10
53.4694088516237
 20
-18.00449011893454
 30
0.0
 11
51.2614289949494
 21
-17.29698100581391
 31
0.0
  0
LINE
  5
E2
330
1F
100
AcDbEntity
  8
01TNR-01
  6
Continuous
 62
     7
100
AcDbLine
 10
53.4694088516237
 20
-27.38404326148043
 30
0.0
 11
53.4694088516237
 21
-18.00449011893454
 31
0.0
  0
LINE
  5
E3
330
1F
100
AcDbEntity
  8
01TNR-01
  6
Continuous
 62
     7
100
AcDbLine
 10
-21.5679934782587
 20
-27.88404326148054
 30
0.0
 11
52.9694088516237
 21
-27.88404326148054
 31
0.0
  0
LINE
  5
E4
330
1F
100
AcDbEntity
  8
01TNR-01
  6
Continuous
 62
     7
100
AcDbLine
 10
-23.56799347825879
 20
-13.38404326148054
 30
0.0
 11
-23.56799347825879
 21
-25.88404326148043
 31
0.0
  0
LINE
  5
E5
330
1F
100
AcDbEntity
  8
01TNR-01
  6
Continuous
 62
     7
100
AcDbLine
 10
-20.43401888204309
 20
-12.88404326148043
 30
0.0
 11
-23.0679934782587
 21
-12.88404326148043
 31
0.0
  0
LINE
  5
E6
330
1F
100
AcDbEntity
  8
01TNR-01
  6
Continuous
 62
     7
100
AcDbLine
 10
-19.82780109939409
 20
-13.9340432614805
 30
0.0
 11
-20.43401888204309
 21
-12.88404326148043
 31
0.0
  0
LINE
  5
E7
330
1F
100
AcDbEntity
  8
01TNR-01
  6
Continuous
 62
     7
100
AcDbLine
 10
-20.7679934782586
 20
-14.38404326148043
 30
0.0
 11
-20.08760872052929
 21
-14.38404326148043
 31
0.0
  0
LINE
  5
E8
330
1F
100
AcDbEntity
  8
01TNR-01
  6
Continuous
 62
     7
100
AcDbLine
 10
-21.06799347825879
 20
-15.89301908355014
 30
0.0
 11
-21.06799347825879
 21
-14.68404326148061
 31
0.0
  0
LINE
  5
E9
330
1F
100
AcDbEntity
  8
01TNR-01
  6
Continuous
 62
     7
100
AcDbLine
 10
-15.46799347825859
 20
-14.68404326148061
 30
0.0
 11
-15.46799347825859
 21
-15.6974627743964
 31
0.0
  0
LINE
  5
EA
330
1F
100
AcDbEntity
  8
01TNR-01
  6
Continuous
 62
     7
100
AcDbLine
 10
-16.539549076236
 20
-14.38404326148043
 30
0.0
 11
-15.7679934782586
 21
-14.38404326148043
 31
0.0
  0
LINE
  5
EB
330
1F
100
AcDbEntity
  8
01TNR-01
  6
Continuous
 62
     7
100
AcDbLine
 10
-16.42203812685929
 20
-12.88404326148043
 30
0.0
 11
-16.82145686247191
 21
-13.98143721848282
 31
0.0
  0
LINE
  5
EC
330
1F
100
AcDbEntity
  8
01TNR-01
  6
Continuous
 62
     7
100
AcDbLine
 10
-3.56799347825878
 20
-12.88404326148043
 30
0.0
 11
-16.42203812685929
 21
-12.88404326148043
 31
0.0
  0
LINE
  5
ED
330
1F
100
AcDbEntity
  8
01TNR-01
  6
Continuous
 62
     7
100
AcDbLine
 10
-3.56799347825878
 20
-9.38404326148043
 30
0.0
 11
-3.56799347825878
 21
-12.88404326148043
 31
0.0
  0
LINE
  5
EE
330
1F
100
AcDbEntity
  8
01TNR-01
  6
Continuous
 62
     7
100
AcDbLine
 10
-1.2679934782586
 20
-9.38404326148043
 30
0.0
 11
-3.56799347825878
 21
-9.38404326148043
 31
0.0
  0
LINE
  5
EF
330
1F
100
AcDbEntity
  8
01TNR-01
  6
Continuous
 62
     7
100
AcDbLine
 10
-1.2679934782586
 20
-7.38404326148043
 30
0.0
 11
-1.2679934782586
 21
-9.38404326148043
 31
0.0
  0
LINE
  5
F0
330
1F
100
AcDbEntity
  8
01TNR-01
  6
Continuous
 62
     7
100
AcDbLine
 10
2.63200652174129
 20
-7.38404326148043
 30
0.0
 11
-1.2679934782586
 21
-7.38404326148043
 31
0.0
  0
LINE
  5
F1
330
1F
100
AcDbEntity
  8
01TNR-01
  6
Continuous
 62
     7
100
AcDbLine
 10
2.63200652174129
 20
-9.38404326148043
 30
0.0
 11
2.63200652174129
 21
-7.38404326148043
 31
0.0
  0
LINE
  5
F2
330
1F
100
AcDbEntity
  8
01TNR-01
  6
Continuous
 62
     7
100
AcDbLine
 10
8.03200652174129
 20
-9.38404326148043
 30
0.0
 11
2.63200652174129
 21
-9.38404326148043
 31
0.0
  0
LINE
  5
F3
330
1F
100
AcDbEntity
  8
01TNR-01
  6
Continuous
 62
     7
100
AcDbLine
 10
8.03200652174129
 20
-2.28404326148052
 30
0.0
 11
8.03200652174129
 21
-9.38404326148043
 31
0.0
  0
LINE
  5
F4
330
1F
100
AcDbEntity
  8
01TNR-01
  6
Continuous
 62
     7
100
AcDbLine
 10
9.03200652174129
 20
-1.28404326148052
 30
0.0
 11
8.03200652174129
 21
-2.28404326148052
 31
0.0
  0
LINE
  5
F5
330
1F
100
AcDbEntity
  8
01TNR-01
  6
Continuous
 62
     7
100
AcDbLine
 10
8.03200652174129
 20
-0.28404326148052
 30
0.0
 11
9.03200652174129
 21
-1.28404326148052
 31
0.0
  0
LINE
  5
F6
330
1F
100
AcDbEntity
  8
01TNR-01
  6
Continuous
 62
     7
100
AcDbLine
 10
8.03200652174129
 20
6.81595673851939
 30
0.0
 11
8.03200652174129
 21
-0.28404326148052
 31
0.0
  0
LINE
  5
F7
330
1F
100
AcDbEntity
  8
01TNR-01
  6
Continuous
 62
     7
100
AcDbLine
 10
2.63200652174129
 20
6.81595673851939
 30
0.0
 11
8.03200652174129
 21
6.81595673851939
 31
0.0
  0
LINE
  5
F8
330
1F
100
AcDbEntity
  8
01TNR-01
  6
Continuous
 62
     7
100
AcDbLine
 10
2.63200652174129
 20
4.8159567385195
 30
0.0
 11
2.63200652174129
 21
6.81595673851939
 31
0.0
  0
LINE
  5
F9
330
1F
100
AcDbEntity
  8
01TNR-01
  6
Continuous
 62
     7
100
AcDbLine
 10
-1.2679934782586
 20
4.8159567385195
 30
0.0
 11
2.63200652174129
 21
4.8159567385195
 31
0.0
  0
LINE
  5
FA
330
1F
100
AcDbEntity
  8
01TNR-01
  6
Continuous
 62
     7
100
AcDbLine
 10
-1.2679934782586
 20
6.81595673851939
 30
0.0
 11
-1.2679934782586
 21
4.8159567385195
 31
0.0
  0
LINE
  5
FB
330
1F
100
AcDbEntity
  8
01TNR-01
  6
Continuous
 62
     7
100
AcDbLine
 10
-3.56799347825878
 20
6.81595673851939
 30
0.0
 11
-1.2679934782586
 21
6.81595673851939
 31
0.0
  0
LINE
  5
FC
330
1F
100
AcDbEntity
  8
01TNR-01
  6
Continuous
 62
     7
100
AcDbLine
 10
-3.56799347825878
 20
18.17813456501062
 30
0.0
 11
-3.56799347825878
 21
6.81595673851939
 31
0.0
  0
LINE
  5
FD
330
1F
100
AcDbEntity
  8
01TNR-01
  6
Continuous
 62
     7
100
AcDbLine
 10
-0.06799347825878
 20
19.11595673851946
 30
0.0
 11
-3.56799347825878
 21
18.17813456501062
 31
0.0
  0
LINE
  5
FE
330
1F
100
AcDbEntity
  8
01TNR-01
  6
Continuous
 62
     7
100
AcDbLine
 10
-0.06799347825878
 20
29.11595673851957
 30
0.0
 11
-0.06799347825878
 21
19.11595673851946
 31
0.0
  0
LINE
  5
FF
330
1F
100
AcDbEntity
  8
01TNR-01
  6
Continuous
 62
     7
100
AcDbLine
 10
-2.7641459009653
 20
29.11595673851957
 30
0.0
 11
-0.06799347825878
 21
29.11595673851957
 31
0.0
  0
LINE
  5
100
330
1F
100
AcDbEntity
  8
01TNR-01
  6
Continuous
 62
     7
100
AcDbLine
 10
-3.56799347825878
 20
32.11595673851957
 30
0.0
 11
-2.7641459009653
 21
29.11595673851957
 31
0.0
  0
LINE
  5
101
330
1F
100
AcDbEntity
  8
01TNR-01
  6
Continuous
 62
     7
100
AcDbLine
 10
71.48799158633346
 20
32.11595673851957
 30
0.0
 11
-3.56799347825878
 21
32.11595673851957
 31
0.0
  0
LINE
  5
102
330
1F
100
AcDbEntity
  8
01TNR-01
  6
Continuous
 62
     7
100
AcDbLine
 10
73.43200652174119
 20
17.65083497539149
 30
0.0
 11
72.48555563659329
 21
31.18571321226364
 31
0.0
  0
LINE
  5
103
330
1F
100
AcDbEntity
  8
01TNR-01
  6
Continuous
 62
     7
100
AcDbLine
 10
70.32958564142723
 20
17.11595673851957
 30
0.0
 11
72.93322449661139
 21
17.11595673851957
 31
0.0
  0
LINE
  5
104
330
1F
100
AcDbEntity
  8
01TNR-01
  6
Continuous
 62
     7
100
AcDbLine
 10
69.72336785877815
 20
18.16595673851941
 30
0.0
 11
70.32958564142723
 21
17.11595673851957
 31
0.0
  0
LINE
  5
105
330
1F
100
AcDbEntity
  8
01TNR-01
  6
Continuous
 62
     7
100
AcDbLine
 10
70.64184962463537
 20
18.61595673851957
 30
0.0
 11
69.98317547991337
 21
18.61595673851957
 31
0.0
  0
LINE
  5
106
330
1F
100
AcDbEntity
  8
01TNR-01
  6
Continuous
 62
     7
100
AcDbLine
 10
70.77329449104889
 20
21.3368836806427
 30
0.0
 11
70.94111883971323
 21
18.93688368064272
 31
0.0
  0
LINE
  5
107
330
1F
100
AcDbEntity
  8
01TNR-01
  6
Continuous
 62
     7
100
AcDbLine
 10
65.66940885162376
 20
21.61595673851957
 30
0.0
 11
70.47402527597092
 21
21.61595673851957
 31
0.0
  0
LINE
  5
108
330
1F
100
AcDbEntity
  8
01TNR-01
  6
Continuous
 62
     7
100
AcDbLine
 10
65.36940885162369
 20
20.11595673851957
 30
0.0
 11
65.36940885162369
 21
21.31595673851939
 31
0.0
  0
LINE
  5
109
330
1F
100
AcDbEntity
  8
01TNR-01
  6
Continuous
 62
     7
100
AcDbLine
 10
65.36940885162369
 20
18.9159567385193
 30
0.0
 11
65.36940885162369
 21
20.11595673851957
 31
0.0
  0
LINE
  5
10A
330
1F
100
AcDbEntity
  8
01TNR-01
  6
Continuous
 62
     7
100
AcDbLine
 10
66.34979360935313
 20
18.61595673851957
 30
0.0
 11
65.66940885162376
 21
18.61595673851957
 31
0.0
  0
LINE
  5
10B
330
1F
100
AcDbEntity
  8
01TNR-01
  6
Continuous
 62
     7
100
AcDbLine
 10
-0.56799347825878
 20
10.3159567385195
 30
0.0
 11
-0.56799347825878
 21
15.61595673851957
 31
0.0
  0
LINE
  5
10C
330
1F
100
AcDbEntity
  8
01TNR-01
  6
Continuous
 62
     7
100
AcDbLine
 10
8.03200652174129
 20
9.81595673851939
 30
0.0
 11
-0.06799347825878
 21
9.81595673851939
 31
0.0
  0
LINE
  5
10D
330
1F
100
AcDbEntity
  8
01TNR-01
  6
Continuous
 62
     7
100
AcDbLine
 10
11.0320065217413
 20
2.38582971959727
 30
0.0
 11
11.0320065217413
 21
6.81595673851939
 31
0.0
  0
LINE
  5
10E
330
1F
100
AcDbEntity
  8
01TNR-01
  6
Continuous
 62
     7
100
AcDbLine
 10
13.5320065217413
 20
1.71595673851948
 30
0.0
 11
11.0320065217413
 21
2.38582971959727
 31
0.0
  0
LINE
  5
10F
330
1F
100
AcDbEntity
  8
01TNR-01
  6
Continuous
 62
     7
100
AcDbLine
 10
13.5320065217413
 20
-0.28404326148052
 30
0.0
 11
13.5320065217413
 21
1.71595673851948
 31
0.0
  0
LINE
  5
110
330
1F
100
AcDbEntity
  8
01TNR-01
  6
Continuous
 62
     7
100
AcDbLine
 10
11.0320065217413
 20
-0.28404326148052
 30
0.0
 11
13.5320065217413
 21
-0.28404326148052
 31
0.0
  0
LINE
  5
111
330
1F
100
AcDbEntity
  8
01TNR-01
  6
Continuous
 62
     7
100
AcDbLine
 10
11.0320065217413
 20
-2.28404326148052
 30
0.0
 11
11.0320065217413
 21
-0.28404326148052
 31
0.0
  0
LINE
  5
112
330
1F
100
AcDbEntity
  8
01TNR-01
  6
Continuous
 62
     7
100
AcDbLine
 10
13.5320065217413
 20
-2.28404326148052
 30
0.0
 11
11.0320065217413
 21
-2.28404326148052
 31
0.0
  0
LINE
  5
113
330
1F
100
AcDbEntity
  8
01TNR-01
  6
Continuous
 62
     7
100
AcDbLine
 10
13.5320065217413
 20
-4.28404326148052
 30
0.0
 11
13.5320065217413
 21
-2.28404326148052
 31
0.0
  0
LINE
  5
114
330
1F
100
AcDbEntity
  8
01TNR-01
  6
Continuous
 62
     7
100
AcDbLine
 10
11.0320065217413
 20
-4.95391624255831
 30
0.0
 11
13.5320065217413
 21
-4.28404326148052
 31
0.0
  0
LINE
  5
115
330
1F
100
AcDbEntity
  8
01TNR-01
  6
Continuous
 62
     7
100
AcDbLine
 10
11.0320065217413
 20
-5.08789083877377
 30
0.0
 11
11.0320065217413
 21
-4.95391624255831
 31
0.0
  0
LINE
  5
116
330
1F
100
AcDbEntity
  8
01TNR-01
  6
Continuous
 62
     7
100
AcDbLine
 10
11.0320065217413
 20
-9.38404326148043
 30
0.0
 11
11.0320065217413
 21
-5.08789083877377
 31
0.0
  0
LINE
  5
117
330
1F
100
AcDbEntity
  8
01TNR-01
  6
Continuous
 62
     7
100
AcDbLine
 10
-0.06799347825878
 20
-12.38404326148043
 30
0.0
 11
8.03200652174129
 21
-12.38404326148043
 31
0.0
  0
LINE
  5
118
330
1F
100
AcDbEntity
  8
01TNR-01
  6
Continuous
 62
     7
100
AcDbLine
 10
-1.06799347825878
 20
-13.38404326148054
 30
0.0
 11
-0.06799347825878
 21
-12.38404326148043
 31
0.0
  0
LINE
  5
119
330
1F
100
AcDbEntity
  8
01TNR-01
  6
Continuous
 62
     7
100
AcDbLine
 10
-1.06799347825878
 20
-24.38404326148043
 30
0.0
 11
-1.06799347825878
 21
-13.38404326148054
 31
0.0
  0
LINE
  5
11A
330
1F
100
AcDbEntity
  8
01TNR-01
  6
Continuous
 62
     7
100
AcDbLine
 10
49.9694088516237
 20
-24.88404326148032
 30
0.0
 11
-0.56799347825878
 21
-24.88404326148054
 31
0.0
  0
LINE
  5
11B
330
1F
100
AcDbEntity
  8
01TNR-01
  6
Continuous
 62
     7
100
AcDbLine
 10
50.4694088516237
 20
-21.36317363303124
 30
0.0
 11
50.4694088516237
 21
-24.38404326148043
 31
0.0
  0
LINE
  5
11C
330
1F
100
AcDbEntity
  8
01TNR-01
  6
Continuous
 62
     7
100
AcDbLine
 10
44.7329620225964
 20
1.61595673851923
 30
0.0
 11
46.2843080671457
 21
-8.85562906218831
 31
0.0
  0
LINE
  5
11D
330
1F
100
AcDbEntity
  8
01TNR-01
  6
Continuous
 62
     7
100
AcDbLine
 10
44.03222842422011
 20
1.61595673851923
 30
0.0
 11
44.7329620225964
 21
1.61595673851923
 31
0.0
  0
LINE
  5
11E
330
1F
100
AcDbEntity
  8
01TNR-01
  6
Continuous
 62
     7
100
AcDbLine
 10
44.288517578152
 20
4.6159567385198
 30
0.0
 11
44.03222842422011
 21
4.61595673851957
 31
0.0
  0
LINE
  5
11F
330
1F
100
AcDbEntity
  8
01TNR-01
  6
Continuous
 62
     7
100
AcDbLine
 10
42.6480324921454
 20
15.68923106906425
 30
0.0
 11
44.288517578152
 21
4.6159567385198
 31
0.0
  0
LINE
  5
120
330
1F
100
AcDbEntity
  8
01TNR-01
  6
Continuous
 62
     7
100
AcDbLine
 10
-0.06799347825878
 20
16.11595673851946
 30
0.0
 11
42.1534307609685
 21
16.11595673851946
 31
0.0
  0
LINE
  5
121
102
{ACAD_REACTORS
330
1AB
330
1AB
102
}
330
1F
100
AcDbEntity
  8
STAHL
  6
Continuous
 62
     7
100
AcDbLine
 10
0.05364638913451
 20
-13.38543150566477
 30
0.0
 11
2.05364638913451
 21
-13.38543150566477
 31
0.0
  0
LINE
  5
122
102
{ACAD_REACTORS
330
1AB
330
1AB
102
}
330
1F
100
AcDbEntity
  8
STAHL
  6
Continuous
 62
     7
100
AcDbLine
 10
0.05364638913451
 20
-22.38543150566477
 30
0.0
 11
0.05364638913451
 21
-13.38543150566477
 31
0.0
  0
LINE
  5
123
102
{ACAD_REACTORS
330
1AB
330
1AB
102
}
330
1F
100
AcDbEntity
  8
STAHL
  6
Continuous
 62
     7
100
AcDbLine
 10
40.0536463891345
 20
-24.38543150566477
 30
0.0
 11
2.05364638913451
 21
-24.38543150566477
 31
0.0
  0
LINE
  5
124
102
{ACAD_REACTORS
330
1AB
330
1AB
102
}
330
1F
100
AcDbEntity
  8
STAHL
  6
Continuous
 62
     7
100
AcDbLine
 10
42.0536463891347
 20
13.61456849433523
 30
0.0
 11
42.0536463891345
 21
-22.38543150566477
 31
0.0
  0
LINE
  5
125
102
{ACAD_REACTORS
330
1AB
330
1AB
102
}
330
1F
100
AcDbEntity
  8
STAHL
  6
Continuous
 62
     7
100
AcDbLine
 10
0.05364638913451
 20
15.61456849433523
 30
0.0
 11
40.0536463891345
 21
15.61456849433523
 31
0.0
  0
LINE
  5
126
102
{ACAD_REACTORS
330
1AB
330
1AB
102
}
330
1F
100
AcDbEntity
  8
STAHL
  6
Continuous
 62
     7
100
AcDbLine
 10
0.05364638913451
 20
13.61456849433523
 30
0.0
 11
0.05364638913451
 21
15.61456849433523
 31
0.0
  0
LINE
  5
127
102
{ACAD_REACTORS
330
1AB
330
1AB
102
}
330
1F
100
AcDbEntity
  8
STAHL
  6
Continuous
 62
     7
100
AcDbLine
 10
39.0536463891345
 20
13.61456849433523
 30
0.0
 11
0.05364638913451
 21
13.61456849433523
 31
0.0
  0
LINE
  5
128
102
{ACAD_REACTORS
330
1AB
330
1AB
102
}
330
1F
100
AcDbEntity
  8
STAHL
  6
Continuous
 62
     7
100
AcDbLine
 10
40.0536463891345
 20
-21.38543150566477
 30
0.0
 11
40.0536463891345
 21
12.61456849433523
 31
0.0
  0
LINE
  5
129
102
{ACAD_REACTORS
330
1AB
330
1AB
102
}
330
1F
100
AcDbEntity
  8
STAHL
  6
Continuous
 62
     7
100
AcDbLine
 10
3.05364638913451
 20
-22.38543150566477
 30
0.0
 11
39.0536463891345
 21
-22.38543150566477
 31
0.0
  0
LINE
  5
12A
102
{ACAD_REACTORS
330
1AB
330
1AB
102
}
330
1F
100
AcDbEntity
  8
STAHL
  6
Continuous
 62
     7
100
AcDbLine
 10
2.05364638913451
 20
-13.38543150566477
 30
0.0
 11
2.05364638913451
 21
-21.38543150566477
 31
0.0
  0
LINE
  5
12B
330
1F
100
AcDbEntity
  8
1
  6
DOT_CENTER
 62
     2
100
AcDbLine
 10
-31.06799347825879
 20
-19.88404326148054
 30
0.0
 11
-27.93651657504401
 21
-19.88404326148054
 31
0.0
  0
ARC
  5
12C
330
1F
100
AcDbEntity
  8
01TNR-01
  6
Continuous
 62
     7
100
AcDbCircle
 10
-14.56799347825918
 20
-23.38404326148043
 30
0.0
 40
0.9999999999995701
100
AcDbArc
 50
-0.00000000000631
 51
47.50467010290623
  0
ARC
  5
12D
330
1F
100
AcDbEntity
  8
01TNR-01
  6
Continuous
 62
     7
100
AcDbCircle
 10
-19.56799347413929
 20
2.61595672564351
 30
0.0
 40
5.499999994333902
100
AcDbArc
 50
-157.3801350519644
 51
-85.21980815279571
  0
ARC
  5
12E
330
1F
100
AcDbEntity
  8
01TNR-01
  6
Continuous
 62
     7
100
AcDbCircle
 10
-25.5679934679583
 20
0.11595672821943
 30
0.0
 40
0.999999998969831
100
AcDbArc
 50
22.61986494804005
 51
-179.999999999987
  0
ARC
  5
12F
330
1F
100
AcDbEntity
  8
01TNR-01
  6
Continuous
 62
     7
100
AcDbCircle
 10
-26.0679934674431
 20
-6.38404326508567
 30
0.0
 40
0.4999999994850022
100
AcDbArc
 50
180.0
 51
-90.00000000001059
  0
ARC
  5
130
330
1F
100
AcDbEntity
  8
01TNR-01
  6
Continuous
 62
     7
100
AcDbCircle
 10
-24.06799346950331
 20
-6.38404326508589
 30
0.0
 40
0.4999999994847713
100
AcDbArc
 50
-89.99999999998616
 51
0.00000000002595
  0
ARC
  5
131
330
1F
100
AcDbEntity
  8
01TNR-01
  6
Continuous
 62
     7
100
AcDbCircle
 10
-22.5679934710486
 20
-5.88404326560067
 30
0.0
 40
0.9999999989699973
100
AcDbArc
 50
0.0
 51
180.0
  0
ARC
  5
132
330
1F
100
AcDbEntity
  8
01TNR-01
  6
Continuous
 62
     7
100
AcDbCircle
 10
-21.0679934725936
 20
-6.38404326508589
 30
0.0
 40
0.4999999994850022
100
AcDbArc
 50
179.9999999999741
 51
-90.0
  0
ARC
  5
133
330
1F
100
AcDbEntity
  8
01TNR-01
  6
Continuous
 62
     7
100
AcDbCircle
 10
-19.0679934746538
 20
-6.38404326508589
 30
0.0
 40
0.4999999994849995
100
AcDbArc
 50
-90.0
 51
0.00000000002595
  0
ARC
  5
134
330
1F
100
AcDbEntity
  8
01TNR-01
  6
Continuous
 62
     7
100
AcDbCircle
 10
-19.0679934746538
 20
-3.36317363974797
 30
0.0
 40
0.4999999994849915
100
AcDbArc
 50
0.0
 51
94.78019184720516
  0
ARC
  5
135
330
1F
100
AcDbEntity
  8
01TNR-01
  6
Continuous
 62
     7
100
AcDbCircle
 10
-47.6679934451939
 20
-6.38404326508589
 30
0.0
 40
0.4999999994849995
100
AcDbArc
 50
-90.0
 51
0.00000000002595
  0
ARC
  5
136
330
1F
100
AcDbEntity
  8
01TNR-01
  6
Continuous
 62
     7
100
AcDbCircle
 10
-47.6679934451939
 20
0.81595672749779
 30
0.0
 40
0.4999999994849986
100
AcDbArc
 50
0.00000000002606
 51
90.0
  0
ARC
  5
137
330
1F
100
AcDbEntity
  8
01TNR-01
  6
Continuous
 62
     7
100
AcDbCircle
 10
-57.06799343551128
 20
0.81595672749779
 30
0.0
 40
0.4999999994849984
100
AcDbArc
 50
90.0
 51
179.9999999999739
  0
ARC
  5
138
330
1F
100
AcDbEntity
  8
01TNR-01
  6
Continuous
 62
     7
100
AcDbCircle
 10
-61.56799343087599
 20
-4.88404326663067
 30
0.0
 40
5.499999994334672
100
AcDbArc
 50
-14.4775121859326
 51
43.34175822722152
  0
ARC
  5
139
330
1F
100
AcDbEntity
  8
01TNR-01
  6
Continuous
 62
     7
100
AcDbCircle
 10
-55.75851841754908
 20
-6.38404326508567
 30
0.0
 40
0.4999999994848857
100
AcDbArc
 50
165.5224878140868
 51
-90.0
  0
ARC
  5
13A
330
1F
100
AcDbEntity
  8
01TNR-01
  6
Continuous
 62
     7
100
AcDbCircle
 10
-28.667993464765
 20
0.81595672749779
 30
0.0
 40
0.4999999994849915
100
AcDbArc
 50
0.00000000002606
 51
90.0
  0
ARC
  5
13B
330
1F
100
AcDbEntity
  8
01TNR-01
  6
Continuous
 62
     7
100
AcDbCircle
 10
-28.667993464765
 20
-6.38404326508589
 30
0.0
 40
0.4999999994849995
100
AcDbArc
 50
-90.0
 51
0.00000000002595
  0
ARC
  5
13C
330
1F
100
AcDbEntity
  8
01TNR-01
  6
Continuous
 62
     7
100
AcDbCircle
 10
-45.06799344787208
 20
-6.38404326508589
 30
0.0
 40
0.4999999994850342
100
AcDbArc
 50
179.9999999999741
 51
-90.0
  0
ARC
  5
13D
330
1F
100
AcDbEntity
  8
01TNR-01
  6
Continuous
 62
     7
100
AcDbCircle
 10
-45.06799344787208
 20
0.81595672749779
 30
0.0
 40
0.4999999994849984
100
AcDbArc
 50
90.0
 51
179.9999999999739
  0
ARC
  5
13E
330
1F
100
AcDbEntity
  8
01TNR-01
  6
Continuous
 62
     7
100
AcDbCircle
 10
-47.6679934451939
 20
36.21595669103363
 30
0.0
 40
0.499999999484892
100
AcDbArc
 50
-90.0
 51
0.0
  0
ARC
  5
13F
330
1F
100
AcDbEntity
  8
01TNR-01
  6
Continuous
 62
     7
100
AcDbCircle
 10
-47.6679934451939
 20
46.61595668032089
 30
0.0
 40
0.4999999994849986
100
AcDbArc
 50
0.00000000002606
 51
90.0
  0
ARC
  5
140
330
1F
100
AcDbEntity
  8
01TNR-01
  6
Continuous
 62
     7
100
AcDbCircle
 10
-55.7585184175488
 20
46.61595668032089
 30
0.0
 40
0.4999999994849986
100
AcDbArc
 50
89.99999999996417
 51
-165.5224878140889
  0
ARC
  5
141
330
1F
100
AcDbEntity
  8
01TNR-01
  6
Continuous
 62
     7
100
AcDbCircle
 10
-61.56799343087599
 20
45.1159566818659
 30
0.0
 40
5.499999994334592
100
AcDbArc
 50
-41.40962210927013
 51
14.47751218593199
  0
ARC
  5
142
330
1F
100
AcDbEntity
  8
01TNR-01
  6
Continuous
 62
     7
100
AcDbCircle
 10
-57.06799343551128
 20
41.14732971935689
 30
0.0
 40
0.4999999994850621
100
AcDbArc
 50
138.5903778907147
 51
179.9999999999739
  0
ARC
  5
143
330
1F
100
AcDbEntity
  8
01TNR-01
  6
Continuous
 62
     7
100
AcDbCircle
 10
-57.06799343551128
 20
36.21595669103363
 30
0.0
 40
0.499999999485027
100
AcDbArc
 50
180.0
 51
-90.0
  0
ARC
  5
144
330
1F
100
AcDbEntity
  8
01TNR-01
  6
Continuous
 62
     7
100
AcDbCircle
 10
-27.79125498732699
 20
46.61595668032089
 30
0.0
 40
0.4999999994849738
100
AcDbArc
 50
8.40620299405599
 51
90.00000000001384
  0
ARC
  5
145
330
1F
100
AcDbEntity
  8
01TNR-01
  6
Continuous
 62
     7
100
AcDbCircle
 10
-26.25436610002109
 20
36.21595669103363
 30
0.0
 40
0.4999999994850057
100
AcDbArc
 50
-90.0
 51
8.40620299405647
  0
ARC
  5
146
330
1F
100
AcDbEntity
  8
01TNR-01
  6
Continuous
 62
     7
100
AcDbCircle
 10
-45.06799344787208
 20
36.21595669103363
 30
0.0
 40
0.4999999994850342
100
AcDbArc
 50
180.0
 51
-90.0
  0
ARC
  5
147
330
1F
100
AcDbEntity
  8
01TNR-01
  6
Continuous
 62
     7
100
AcDbCircle
 10
-45.06799344787208
 20
46.61595668032089
 30
0.0
 40
0.4999999994849986
100
AcDbArc
 50
90.0
 51
179.9999999999739
  0
ARC
  5
148
102
{ACAD_REACTORS
330
1AA
330
1AA
102
}
330
1F
100
AcDbEntity
  8
STAHL
  6
Continuous
 62
     7
100
AcDbCircle
 10
-55.43056318773199
 20
32.05676969933813
 30
0.0
 40
1.49999999858494
100
AcDbArc
 50
90.00000000000462
 51
180.0
  0
ARC
  5
149
102
{ACAD_REACTORS
330
1AA
330
1AA
102
}
330
1F
100
AcDbEntity
  8
STAHL
  6
Continuous
 62
     7
100
AcDbCircle
 10
-55.43056318773191
 20
5.05676972480967
 30
0.0
 40
1.499999998584876
100
AcDbArc
 50
179.9999999999913
 51
-90.0000000000076
  0
ARC
  5
14A
102
{ACAD_REACTORS
330
1AA
330
1AA
102
}
330
1F
100
AcDbEntity
  8
STAHL
  6
Continuous
 62
     7
100
AcDbCircle
 10
-28.43056321320358
 20
5.0567697248099
 30
0.0
 40
1.499999998585054
100
AcDbArc
 50
-90.0
 51
0.0
  0
ARC
  5
14B
102
{ACAD_REACTORS
330
1AA
330
1AA
102
}
330
1F
100
AcDbEntity
  8
STAHL
  6
Continuous
 62
     7
100
AcDbCircle
 10
-28.4305632132035
 20
32.05676969933813
 30
0.0
 40
1.499999998584798
100
AcDbArc
 50
0.0
 51
90.00000000000313
  0
ARC
  5
14C
330
1F
100
AcDbEntity
  8
01TNR-01
  6
Continuous
 62
     7
100
AcDbCircle
 10
-23.624712301356
 20
11.61595671637303
 30
0.0
 40
0.4999999994849915
100
AcDbArc
 50
-90.0
 51
8.42696902147113
  0
ARC
  5
14D
330
1F
100
AcDbEntity
  8
01TNR-01
  6
Continuous
 62
     7
100
AcDbCircle
 10
-26.88397155725821
 20
33.61595669371172
 30
0.0
 40
0.4999999994851113
100
AcDbArc
 50
8.42696902148476
 51
90.00000000000895
  0
ARC
  5
14E
330
1F
100
AcDbEntity
  8
01TNR-01
  6
Continuous
 62
     7
100
AcDbCircle
 10
-57.06799343551128
 20
33.61595669371172
 30
0.0
 40
0.4999999994851194
100
AcDbArc
 50
90.0
 51
180.0
  0
ARC
  5
14F
330
1F
100
AcDbEntity
  8
01TNR-01
  6
Continuous
 62
     7
100
AcDbCircle
 10
-57.06799343551128
 20
3.41595672481969
 30
0.0
 40
0.499999999485027
100
AcDbArc
 50
180.0
 51
-90.0
  0
ARC
  5
150
330
1F
100
AcDbEntity
  8
01TNR-01
  6
Continuous
 62
     7
100
AcDbCircle
 10
-25.2679934682678
 20
3.41595672481947
 30
0.0
 40
0.4999999994849982
100
AcDbArc
 50
-90.0
 51
0.00000000002611
  0
ARC
  5
151
330
1F
100
AcDbEntity
  8
01TNR-01
  6
Continuous
 62
     7
100
AcDbCircle
 10
-20.76799347290319
 20
5.31595672286232
 30
0.0
 40
3.999999995879797
100
AcDbArc
 50
132.835009332626
 51
180.0
  0
ARC
  5
152
330
1F
100
AcDbEntity
  8
01TNR-01
  6
Continuous
 62
     7
100
AcDbCircle
 10
-23.82749625115801
 20
8.61587228362043
 30
0.0
 40
0.4999999994849215
100
AcDbArc
 50
-47.16499066737098
 51
89.14592054135731
  0
ARC
  5
153
330
1F
100
AcDbEntity
  8
01TNR-01
  6
Continuous
 62
     7
100
AcDbCircle
 10
-23.83882477055559
 20
7.85595672024306
 30
0.0
 40
1.259999998705355
100
AcDbArc
 50
89.14592054120234
 51
89.99999999985897
  0
ARC
  5
154
330
1F
100
AcDbEntity
  8
01TNR-01
  6
Continuous
 62
     7
100
AcDbCircle
 10
-25.5679934679583
 20
10.11595671791827
 30
0.0
 40
0.9999999989699901
100
AcDbArc
 50
90.0
 51
-90.0
  0
ARC
  5
155
330
1F
100
AcDbEntity
  8
01TNR-01
  6
Continuous
 62
     7
100
AcDbCircle
 10
-18.1179934756328
 20
-0.23667363653738
 30
0.0
 40
0.9999999989700414
100
AcDbArc
 50
69.99999999999949
 51
116.9443581804659
  0
ARC
  5
156
330
1F
100
AcDbEntity
  8
01TNR-01
  6
Continuous
 62
     7
100
AcDbCircle
 10
-19.56799347413929
 20
2.61595672564351
 30
0.0
 40
2.199999997733812
100
AcDbArc
 50
180.0
 51
-63.05564181951908
  0
ARC
  5
157
330
1F
100
AcDbEntity
  8
01TNR-01
  6
Continuous
 62
     7
100
AcDbCircle
 10
-20.76799347290319
 20
5.31595672286232
 30
0.0
 40
0.9999999989699926
100
AcDbArc
 50
-8.91330482081367
 51
180.0
  0
ARC
  5
158
330
1F
100
AcDbEntity
  8
01TNR-01
  6
Continuous
 62
     7
100
AcDbCircle
 10
-19.483692386831
 20
5.11453498413437
 30
0.0
 40
0.2999999996909312
100
AcDbArc
 50
171.0866951791448
 51
-91.93240493702187
  0
ARC
  5
159
330
1F
100
AcDbEntity
  8
01TNR-01
  6
Continuous
 62
     7
100
AcDbCircle
 10
-19.56799347413929
 20
2.61595672564351
 30
0.0
 40
2.19999999773407
100
AcDbArc
 50
63.0556418195231
 51
88.06759506295361
  0
ARC
  5
15A
330
1F
100
AcDbEntity
  8
01TNR-01
  6
Continuous
 62
     7
100
AcDbCircle
 10
-18.11799347563269
 20
5.4685870878244
 30
0.0
 40
0.9999999989699002
100
AcDbArc
 50
-116.9443581804804
 51
-70.00000000000541
  0
ARC
  5
15B
330
1F
100
AcDbEntity
  8
01TNR-01
  6
Continuous
 62
     7
100
AcDbCircle
 10
-19.1366103611031
 20
8.61595671946327
 30
0.0
 40
0.4999999994849891
100
AcDbArc
 50
-171.5730309785403
 51
-90.00000000001262
  0
ARC
  5
15C
330
1F
100
AcDbEntity
  8
01TNR-01
  6
Continuous
 62
     7
100
AcDbCircle
 10
-22.40893094795641
 20
34.11595669319672
 30
0.0
 40
0.9999999989701109
100
AcDbArc
 50
90.0
 51
-171.5730309785198
  0
ARC
  5
15D
330
1F
100
AcDbEntity
  8
01TNR-01
  6
Continuous
 62
     7
100
AcDbCircle
 10
-2.5820593375106
 20
36.31595669093076
 30
0.0
 40
0.2999999996910109
100
AcDbArc
 50
-30.00000000001877
 51
89.9999999999782
  0
ARC
  5
15E
330
1F
100
AcDbEntity
  8
01TNR-01
  6
Continuous
 62
     7
100
AcDbCircle
 10
-3.36799349082571
 20
36.91595669031267
 30
0.0
 40
0.2999999996910958
100
AcDbArc
 50
180.0
 51
-90.0
  0
ARC
  5
15F
330
1F
100
AcDbEntity
  8
01TNR-01
  6
Continuous
 62
     7
100
AcDbCircle
 10
-2.16799349206201
 20
37.94965916293813
 30
0.0
 40
1.49999999845511
100
AcDbArc
 50
89.99999999999567
 51
179.9999999999872
  0
ARC
  5
160
330
1F
100
AcDbEntity
  8
01TNR-01
  6
Continuous
 62
     7
100
AcDbCircle
 10
1.35687768209851
 20
39.14965916170229
 30
0.0
 40
0.2999999996909328
100
AcDbArc
 50
3.81407483429325
 51
90.0
  0
ARC
  5
161
330
1F
100
AcDbEntity
  8
01TNR-01
  6
Continuous
 62
     7
100
AcDbCircle
 10
1.50579118019121
 20
36.91595669031267
 30
0.0
 40
0.2999999996910674
100
AcDbArc
 50
-90.0
 51
3.81407483427023
  0
ARC
  5
162
330
1F
100
AcDbEntity
  8
01TNR-01
  6
Continuous
 62
     7
100
AcDbCircle
 10
0.84607235070871
 20
36.31595669093076
 30
0.0
 40
0.29999999969084
100
AcDbArc
 50
90.00000000002171
 51
-149.9999999999839
  0
ARC
  5
163
330
1F
100
AcDbEntity
  8
01TNR-01
  6
Continuous
 62
     7
100
AcDbCircle
 10
3.89756328907799
 20
35.6159566916516
 30
0.0
 40
0.4999999994847641
100
AcDbArc
 50
-90.0
 51
3.81407483430736
  0
ARC
  5
164
330
1F
100
AcDbEntity
  8
01TNR-01
  6
Continuous
 62
     7
100
AcDbCircle
 10
2.49645341124221
 20
49.11595667774577
 30
0.0
 40
0.9999999989700028
100
AcDbArc
 50
3.81407483429891
 51
90.00000000000647
  0
ARC
  5
165
330
1F
100
AcDbEntity
  8
01TNR-01
  6
Continuous
 62
     7
100
AcDbCircle
 10
-61.56799343087599
 20
45.1159566818659
 30
0.0
 40
2.499999997424803
100
AcDbArc
 50
-118.685402014075
 51
118.6854020141031
  0
ARC
  5
166
330
1F
100
AcDbEntity
  8
01TNR-01
  6
Continuous
 62
     7
100
AcDbCircle
 10
-63.06799342933101
 20
32.11595669525684
 30
0.0
 40
1.499999998455063
100
AcDbArc
 50
19.47122063448979
 51
160.5287793655084
  0
ARC
  5
167
330
1F
100
AcDbEntity
  8
01TNR-01
  6
Continuous
 62
     7
100
AcDbCircle
 10
-64.56799342778561
 20
1.11595672718886
 30
0.0
 40
0.9999999989697699
100
AcDbArc
 50
90.00000000000489
 51
-179.999999999987
  0
ARC
  5
168
330
1F
100
AcDbEntity
  8
01TNR-01
  6
Continuous
 62
     7
100
AcDbCircle
 10
-61.56799343087599
 20
-4.88404326663067
 30
0.0
 40
2.499999997424833
100
AcDbArc
 50
-118.3576365763245
 51
118.357636576327
  0
ARC
  5
169
330
1F
100
AcDbEntity
  8
01TNR-01
  6
Continuous
 62
     7
100
AcDbCircle
 10
-16.0679934777437
 20
-9.38404326199554
 30
0.0
 40
0.4999999994849986
100
AcDbArc
 50
-90.00000000000936
 51
-0.00000000001303
  0
ARC
  5
16A
330
1F
100
AcDbEntity
  8
01TNR-01
  6
Continuous
 62
     7
100
AcDbCircle
 10
0.46865718535579
 20
41.94965915881812
 30
0.0
 40
0.4999999994849986
100
AcDbArc
 50
-90.0
 51
3.81407483429187
  0
ARC
  5
16B
330
1F
100
AcDbEntity
  8
01TNR-01
  6
Continuous
 62
     7
100
AcDbCircle
 10
0.15757068392242
 20
46.61595668032089
 30
0.0
 40
0.4999999994848343
100
AcDbArc
 50
3.81407483428142
 51
89.99999999997722
  0
ARC
  5
16C
330
1F
100
AcDbEntity
  8
01TNR-01
  6
Continuous
 62
     7
100
AcDbCircle
 10
-24.75867449779361
 20
46.61595668032089
 30
0.0
 40
0.4999999994849986
100
AcDbArc
 50
89.9999999999772
 51
-171.5937970059401
  0
ARC
  5
16D
330
1F
100
AcDbEntity
  8
01TNR-01
  6
Continuous
 62
     7
100
AcDbCircle
 10
-23.57645227678918
 20
38.61595668856137
 30
0.0
 40
0.499999999484777
100
AcDbArc
 50
-171.5937970059407
 51
-90.00000000001384
  0
ARC
  5
16E
330
1F
100
AcDbEntity
  8
01TNR-01
  6
Continuous
 62
     7
100
AcDbCircle
 10
-6.51422749878679
 20
39.11595668804637
 30
0.0
 40
0.9999999989697699
100
AcDbArc
 50
-90.0
 51
-15.02124737927642
  0
ARC
  5
16F
330
1F
100
AcDbEntity
  8
01TNR-01
  6
Continuous
 62
     7
100
AcDbCircle
 10
-2.16799349206201
 20
37.94965916293813
 30
0.0
 40
3.499999996395062
100
AcDbArc
 50
89.99998838722249
 51
164.9787526207178
  0
ARC
  5
170
330
1F
100
AcDbEntity
  8
01TNR-01
  6
Continuous
 62
     7
100
AcDbCircle
 10
3.43200652174122
 20
28.61595673851957
 30
0.0
 40
0.5
100
AcDbArc
 50
90.0
 51
180.0
  0
ARC
  5
171
330
1F
100
AcDbEntity
  8
01TNR-01
  6
Continuous
 62
     7
100
AcDbCircle
 10
3.43200652174122
 20
18.61595673851957
 30
0.0
 40
0.5
100
AcDbArc
 50
180.0
 51
-90.0
  0
ARC
  5
172
330
1F
100
AcDbEntity
  8
01TNR-01
  6
Continuous
 62
     7
100
AcDbCircle
 10
42.7239251077428
 20
18.61595673851957
 30
0.0
 40
0.5000000000001101
100
AcDbArc
 50
-90.0
 51
8.40620299403841
  0
ARC
  5
173
330
1F
100
AcDbEntity
  8
01TNR-01
  6
Continuous
 62
     7
100
AcDbCircle
 10
41.2461473299651
 20
28.61595673851957
 30
0.0
 40
0.499999999999988
100
AcDbArc
 50
8.40620299403984
 51
90.0
  0
ARC
  5
174
330
1F
100
AcDbEntity
  8
01TNR-01
  6
Continuous
 62
     7
100
AcDbCircle
 10
64.8694088516238
 20
22.11595673851957
 30
0.0
 40
1.0
100
AcDbArc
 50
90.0
 51
-179.9999999999937
  0
ARC
  5
175
330
1F
100
AcDbEntity
  8
01TNR-01
  6
Continuous
 62
     7
100
AcDbCircle
 10
69.50633793070699
 20
23.61595673851957
 30
0.0
 40
0.5
100
AcDbArc
 50
-90.00000000001303
 51
3.99999999998442
  0
ARC
  5
176
330
1F
100
AcDbEntity
  8
01TNR-01
  6
Continuous
 62
     7
100
AcDbCircle
 10
69.1567038709893
 20
28.61595673851957
 30
0.0
 40
0.4999999999999905
100
AcDbArc
 50
3.99999999998352
 51
90.0
  0
ARC
  5
177
330
1F
100
AcDbEntity
  8
01TNR-01
  6
Continuous
 62
     7
100
AcDbCircle
 10
44.2787278226222
 20
28.61595673851957
 30
0.0
 40
0.5
100
AcDbArc
 50
90.0
 51
-171.5937970059351
  0
ARC
  5
178
330
1F
100
AcDbEntity
  8
01TNR-01
  6
Continuous
 62
     7
100
AcDbCircle
 10
45.46095004484431
 20
20.61595673851957
 30
0.0
 40
0.5000000000000202
100
AcDbArc
 50
-171.5937970059352
 51
-89.9999999999886
  0
ARC
  5
179
330
1F
100
AcDbEntity
  8
01TNR-01
  6
Continuous
 62
     7
100
AcDbCircle
 10
63.3694088516238
 20
20.61595673851957
 30
0.0
 40
0.5
100
AcDbArc
 50
-90.0
 51
0.0
  0
ARC
  5
17A
330
1F
100
AcDbEntity
  8
01TNR-01
  6
Continuous
 62
     7
100
AcDbCircle
 10
-20.06799347825879
 20
-24.38404326148043
 30
0.0
 40
0.5
100
AcDbArc
 50
180.0
 51
-90.0
  0
ARC
  5
17B
330
1F
100
AcDbEntity
  8
01TNR-01
  6
Continuous
 62
     7
100
AcDbCircle
 10
-14.56799347825918
 20
-23.38404326148043
 30
0.0
 40
0.9999999999996338
100
AcDbArc
 50
136.4953298970948
 51
180.0
  0
ARC
  5
17C
330
1F
100
AcDbEntity
  8
01TNR-01
  6
Continuous
 62
     7
100
AcDbCircle
 10
-8.06799347825918
 20
-23.38404326148043
 30
0.0
 40
0.9999999999995737
100
AcDbArc
 50
-0.00000000000631
 51
180.0
  0
ARC
  5
17D
330
1F
100
AcDbEntity
  8
01TNR-01
  6
Continuous
 62
     7
100
AcDbCircle
 10
-4.06799347825878
 20
-24.38404326148054
 30
0.0
 40
0.5
100
AcDbArc
 50
-89.99999999999022
 51
0.00000000001262
  0
ARC
  5
17E
330
1F
100
AcDbEntity
  8
01TNR-01
  6
Continuous
 62
     7
100
AcDbCircle
 10
46.62847137487981
 20
16.11595673851946
 30
0.0
 40
1.00000000000011
100
AcDbArc
 50
90.0
 51
-171.5730309785199
  0
ARC
  5
17F
330
1F
100
AcDbEntity
  8
01TNR-01
  6
Continuous
 62
     7
100
AcDbCircle
 10
49.90079196510371
 20
-9.38404326148043
 30
0.0
 40
0.5000000000000719
100
AcDbArc
 50
-171.5730309785136
 51
-90.0
  0
ARC
  5
180
330
1F
100
AcDbEntity
  8
01TNR-01
  6
Continuous
 62
     7
100
AcDbCircle
 10
50.9194088516236
 20
-12.53141289636142
 30
0.0
 40
1.000000000000138
100
AcDbArc
 50
-116.9443581804717
 51
-69.99999999999469
  0
ARC
  5
181
330
1F
100
AcDbEntity
  8
01TNR-01
  6
Continuous
 62
     7
100
AcDbCircle
 10
49.4694088516237
 20
-15.38404326148043
 30
0.0
 40
2.199999999999665
100
AcDbArc
 50
63.05564181952266
 51
88.06759506295386
  0
ARC
  5
182
330
1F
100
AcDbEntity
  8
01TNR-01
  6
Continuous
 62
     7
100
AcDbCircle
 10
49.5537099390187
 20
-12.88546500041616
 30
0.0
 40
0.2999999999999417
100
AcDbArc
 50
171.0866951791695
 51
-91.93240493700249
  0
ARC
  5
183
330
1F
100
AcDbEntity
  8
01TNR-01
  6
Continuous
 62
     7
100
AcDbCircle
 10
48.26940885162391
 20
-12.68404326148016
 30
0.0
 40
0.9999999999998483
100
AcDbArc
 50
-8.91330482085576
 51
-179.9999999999741
  0
ARC
  5
184
330
1F
100
AcDbEntity
  8
01TNR-01
  6
Continuous
 62
     7
100
AcDbCircle
 10
49.4694088516237
 20
-15.38404326148043
 30
0.0
 40
2.19999999999979
100
AcDbArc
 50
-179.9999999999912
 51
-63.05564181953068
  0
ARC
  5
185
330
1F
100
AcDbEntity
  8
01TNR-01
  6
Continuous
 62
     7
100
AcDbCircle
 10
50.9194088516236
 20
-18.23667362660012
 30
0.0
 40
1.000000000000325
100
AcDbArc
 50
69.99999999999893
 51
116.9443581804718
  0
ARC
  5
186
330
1F
100
AcDbEntity
  8
01TNR-01
  6
Continuous
 62
     7
100
AcDbCircle
 10
52.9694088516237
 20
-27.38404326148043
 30
0.0
 40
0.5000000000001101
100
AcDbArc
 50
-90.0
 51
0.0
  0
ARC
  5
187
330
1F
100
AcDbEntity
  8
01TNR-01
  6
Continuous
 62
     7
100
AcDbCircle
 10
-21.5679934782587
 20
-25.88404326148043
 30
0.0
 40
2.000000000000089
100
AcDbArc
 50
180.0
 51
-90.0
  0
ARC
  5
188
330
1F
100
AcDbEntity
  8
01TNR-01
  6
Continuous
 62
     7
100
AcDbCircle
 10
-23.0679934782587
 20
-13.38404326148054
 30
0.0
 40
0.5000000000001101
100
AcDbArc
 50
90.0
 51
180.0
  0
ARC
  5
189
330
1F
100
AcDbEntity
  8
01TNR-01
  6
Continuous
 62
     7
100
AcDbCircle
 10
-20.08760872052929
 20
-14.08404326148047
 30
0.0
 40
0.2999999999999599
100
AcDbArc
 50
-90.0
 51
30.00000000000775
  0
ARC
  5
18A
330
1F
100
AcDbEntity
  8
01TNR-01
  6
Continuous
 62
     7
100
AcDbCircle
 10
-20.7679934782586
 20
-14.68404326148061
 30
0.0
 40
0.3000000000001801
100
AcDbArc
 50
90.0
 51
180.0
  0
ARC
  5
18B
330
1F
100
AcDbEntity
  8
01TNR-01
  6
Continuous
 62
     7
100
AcDbCircle
 10
-15.7679934782586
 20
-14.6840432614805
 30
0.0
 40
0.3000000000000096
100
AcDbArc
 50
-0.00000000002103
 51
90.0
  0
ARC
  5
18C
330
1F
100
AcDbEntity
  8
01TNR-01
  6
Continuous
 62
     7
100
AcDbCircle
 10
-16.5395490762362
 20
-14.08404326148047
 30
0.0
 40
0.2999999999999236
100
AcDbArc
 50
160.0000000000051
 51
-89.99999999996201
  0
ARC
  5
18D
330
1F
100
AcDbEntity
  8
01TNR-01
  6
Continuous
 62
     7
100
AcDbCircle
 10
71.48799158633335
 20
31.11595673851957
 30
0.0
 40
1.00000000000011
100
AcDbArc
 50
3.99999999999626
 51
89.99999999999349
  0
ARC
  5
18E
330
1F
100
AcDbEntity
  8
01TNR-01
  6
Continuous
 62
     7
100
AcDbCircle
 10
72.93322449661139
 20
17.61595673851957
 30
0.0
 40
0.5
100
AcDbArc
 50
-90.0
 51
3.99999999998442
  0
ARC
  5
18F
330
1F
100
AcDbEntity
  8
01TNR-01
  6
Continuous
 62
     7
100
AcDbCircle
 10
69.98317547991337
 20
18.31595673851939
 30
0.0
 40
0.3000000000001819
100
AcDbArc
 50
90.0
 51
-149.9999999999929
  0
ARC
  5
190
330
1F
100
AcDbEntity
  8
01TNR-01
  6
Continuous
 62
     7
100
AcDbCircle
 10
70.64184962463548
 20
18.91595673851953
 30
0.0
 40
0.2999999999999581
100
AcDbArc
 50
-90.00000000002171
 51
3.99999999999355
  0
ARC
  5
191
330
1F
100
AcDbEntity
  8
01TNR-01
  6
Continuous
 62
     7
100
AcDbCircle
 10
70.47402527597092
 20
21.31595673851939
 30
0.0
 40
0.3000000000000281
100
AcDbArc
 50
4.00000000001354
 51
90.0
  0
ARC
  5
192
330
1F
100
AcDbEntity
  8
01TNR-01
  6
Continuous
 62
     7
100
AcDbCircle
 10
65.66940885162376
 20
21.31595673851939
 30
0.0
 40
0.3000000000001819
100
AcDbArc
 50
90.0
 51
180.0
  0
ARC
  5
193
330
1F
100
AcDbEntity
  8
01TNR-01
  6
Continuous
 62
     7
100
AcDbCircle
 10
65.66940885162353
 20
18.91595673851953
 30
0.0
 40
0.2999999999998408
100
AcDbArc
 50
-179.9999999999559
 51
-89.99999999995657
  0
ARC
  5
194
330
1F
100
AcDbEntity
  8
01TNR-01
  6
Continuous
 62
     7
100
AcDbCircle
 10
66.3497936093529
 20
18.31595673851939
 30
0.0
 40
0.3000000000000938
100
AcDbArc
 50
-29.99999999998543
 51
89.99999999995657
  0
ARC
  5
195
330
1F
100
AcDbEntity
  8
01TNR-01
  6
Continuous
 62
     7
100
AcDbCircle
 10
-0.06799347825878
 20
15.61595673851957
 30
0.0
 40
0.4999999999998916
100
AcDbArc
 50
90.0
 51
180.0
  0
ARC
  5
196
330
1F
100
AcDbEntity
  8
01TNR-01
  6
Continuous
 62
     7
100
AcDbCircle
 10
-0.06799347825878
 20
10.31595673851939
 30
0.0
 40
0.5
100
AcDbArc
 50
179.9999999999874
 51
-90.0
  0
ARC
  5
197
330
1F
100
AcDbEntity
  8
01TNR-01
  6
Continuous
 62
     7
100
AcDbCircle
 10
8.03200652174129
 20
6.81595673851939
 30
0.0
 40
3.000000000000005
100
AcDbArc
 50
0.0
 51
90.0
  0
ARC
  5
198
330
1F
100
AcDbEntity
  8
01TNR-01
  6
Continuous
 62
     7
100
AcDbCircle
 10
8.03200652174129
 20
-9.38404326148043
 30
0.0
 40
3.000000000000002
100
AcDbArc
 50
-90.0
 51
0.0
  0
ARC
  5
199
330
1F
100
AcDbEntity
  8
01TNR-01
  6
Continuous
 62
     7
100
AcDbCircle
 10
-0.56799347825878
 20
-24.38404326148043
 30
0.0
 40
0.5
100
AcDbArc
 50
180.0
 51
-90.0
  0
ARC
  5
19A
330
1F
100
AcDbEntity
  8
01TNR-01
  6
Continuous
 62
     7
100
AcDbCircle
 10
49.9694088516239
 20
-24.38404326148043
 30
0.0
 40
0.4999999999998899
100
AcDbArc
 50
-90.00000000002362
 51
0.0
  0
ARC
  5
19B
330
1F
100
AcDbEntity
  8
01TNR-01
  6
Continuous
 62
     7
100
AcDbCircle
 10
49.9694088516237
 20
-21.36317363303124
 30
0.0
 40
0.5
100
AcDbArc
 50
0.0
 51
94.78019184719093
  0
ARC
  5
19C
330
1F
100
AcDbEntity
  8
01TNR-01
  6
Continuous
 62
     7
100
AcDbCircle
 10
49.4694088516237
 20
-15.38404326148043
 30
0.0
 40
5.499999999999897
100
AcDbArc
 50
-175.8300901596116
 51
-85.2198081528002
  0
ARC
  5
19D
330
1F
100
AcDbEntity
  8
01TNR-01
  6
Continuous
 62
     7
100
AcDbCircle
 10
43.9694088516237
 20
-14.28404326148052
 30
0.0
 40
1.500000000000003
100
AcDbArc
 50
78.3797054131693
 51
-89.44385600994067
  0
ARC
  5
19E
330
1F
100
AcDbEntity
  8
01TNR-01
  6
Continuous
 62
     7
100
AcDbCircle
 10
48.26940885162391
 20
-12.68404326148016
 30
0.0
 40
4.000000000000263
100
AcDbArc
 50
123.4387341481893
 51
-178.1268957652683
  0
ARC
  5
19F
330
1F
100
AcDbEntity
  8
01TNR-01
  6
Continuous
 62
     7
100
AcDbCircle
 10
45.7897063359687
 20
-8.92890339273288
 30
0.0
 40
0.4999999999999707
100
AcDbArc
 50
-56.56126585183029
 51
8.42696902146063
  0
ARC
  5
1A0
330
1F
100
AcDbEntity
  8
01TNR-01
  6
Continuous
 62
     7
100
AcDbCircle
 10
44.03222842422011
 20
3.11595673851934
 30
0.0
 40
1.500000000000226
100
AcDbArc
 50
90.0
 51
-90.0
  0
ARC
  5
1A1
330
1F
100
AcDbEntity
  8
01TNR-01
  6
Continuous
 62
     7
100
AcDbCircle
 10
42.1534307609685
 20
15.61595673851957
 30
0.0
 40
0.4999999999999574
100
AcDbArc
 50
8.42696902147559
 51
90.0
  0
ARC
  5
1A2
102
{ACAD_REACTORS
330
1AB
330
1AB
102
}
330
1F
100
AcDbEntity
  8
STAHL
  6
Continuous
 62
     7
100
AcDbCircle
 10
2.05364638913451
 20
-22.38543150566477
 30
0.0
 40
2.0
100
AcDbArc
 50
180.0
 51
-90.0
  0
ARC
  5
1A3
102
{ACAD_REACTORS
330
1AB
330
1AB
102
}
330
1F
100
AcDbEntity
  8
STAHL
  6
Continuous
 62
     7
100
AcDbCircle
 10
40.0536463891345
 20
-22.38543150566477
 30
0.0
 40
2.0
100
AcDbArc
 50
-90.0
 51
0.0
  0
ARC
  5
1A4
102
{ACAD_REACTORS
330
1AB
330
1AB
102
}
330
1F
100
AcDbEntity
  8
STAHL
  6
Continuous
 62
     7
100
AcDbCircle
 10
40.0536463891345
 20
13.61456849433512
 30
0.0
 40
2.000000000000199
100
AcDbArc
 50
0.00000000000316
 51
90.0
  0
ARC
  5
1A5
102
{ACAD_REACTORS
330
1AB
330
1AB
102
}
330
1F
100
AcDbEntity
  8
STAHL
  6
Continuous
 62
     7
100
AcDbCircle
 10
39.0536463891345
 20
12.61456849433523
 30
0.0
 40
1.0
100
AcDbArc
 50
0.0
 51
90.0
  0
ARC
  5
1A6
102
{ACAD_REACTORS
330
1AB
330
1AB
102
}
330
1F
100
AcDbEntity
  8
STAHL
  6
Continuous
 62
     7
100
AcDbCircle
 10
39.0536463891345
 20
-21.38543150566477
 30
0.0
 40
1.0
100
AcDbArc
 50
-90.0
 51
0.0
  0
ARC
  5
1A7
102
{ACAD_REACTORS
330
1AB
330
1AB
102
}
330
1F
100
AcDbEntity
  8
STAHL
  6
Continuous
 62
     7
100
AcDbCircle
 10
3.05364638913451
 20
-21.38543150566477
 30
0.0
 40
1.0
100
AcDbArc
 50
180.0
 51
-90.0
  0
CIRCLE
  5
1A8
330
1F
100
AcDbEntity
  8
1
  6
Continuous
 62
     7
100
AcDbCircle
 10
-35.06799347825879
 20
-19.88404326148054
 30
0.0
 40
6.500000000000002
  0
CIRCLE
  5
1A9
330
1F
100
AcDbEntity
  8
1
  6
Continuous
 62
     7
100
AcDbCircle
 10
-35.06799347825879
 20
-19.88404326148054
 30
0.0
 40
4.000000000000004
  0
HATCH
  5
1AA
330
1F
100
AcDbEntity
  8
1
  6
Continuous
 62
     3
100
AcDbHatch
 10
0.0
 20
0.0
 30
0.0
210
0.0
220
0.0
230
1.0
  2
SOLID
 70
     1
 71
     1
 91
        1
 92
        1
 93
       16
 72
     1
 10
-26.9305632146187
 20
32.05676969933813
 11
-26.9305632146187
 21
5.056769724809897
 72
     2
 10
-28.43056321320358
 20
5.056769724809897
 40
1.499999998585054
 50
0.0
 51
90.0
 73
     0
 72
     1
 10
-28.43056321320358
 20
3.556769726224843
 11
-55.43056318773211
 21
3.556769726224843
 72
     2
 10
-55.43056318773191
 20
5.056769724809669
 40
1.499999998584876
 50
90.0000000000076
 51
180.0000000000087
 73
     0
 72
     1
 10
-56.93056318631679
 20
5.056769724809897
 11
-56.93056318631679
 21
32.05676969933813
 72
     2
 10
-55.43056318773199
 20
32.05676969933813
 40
1.49999999858494
 50
180.0
 51
269.9999999999954
 73
     0
 72
     1
 10
-55.43056318773211
 20
33.55676969792307
 11
-42.43056319999619
 21
33.55676969792307
 72
     1
 10
-42.43056319999619
 20
33.55676969792307
 11
-42.43056319999619
 21
31.55676969980971
 72
     1
 10
-42.43056319999619
 20
31.55676969980971
 11
-54.93056318820379
 21
31.55676969980993
 72
     1
 10
-54.93056318820379
 20
31.55676969980993
 11
-54.93056318820379
 21
5.556769724338096
 72
     1
 10
-54.93056318820379
 20
5.556769724338096
 11
-28.9305632127321
 21
5.556769724338096
 72
     1
 10
-28.9305632127321
 20
5.556769724338096
 11
-28.9305632127321
 21
31.55676969980993
 72
     1
 10
-28.9305632127321
 20
31.55676969980993
 11
-41.43056320093939
 21
31.55676969980971
 72
     1
 10
-41.43056320093939
 20
31.55676969980971
 11
-41.43056320093939
 21
33.55676969792307
 72
     1
 10
-41.43056320093939
 20
33.55676969792307
 11
-28.43056321320358
 21
33.55676969792307
 72
     2
 10
-28.4305632132035
 20
32.05676969933813
 40
1.499999998584798
 50
269.9999999999968
 51
360.0
 73
     0
 97
       16
330
81
330
14A
330
80
330
149
330
7F
330
148
330
7E
330
7D
330
7C
330
87
330
86
330
85
330
84
330
83
330
82
330
14B
 75
     0
 76
     1
 98
        1
 10
0.0
 20
0.0
  0
HATCH
  5
1AB
330
1F
100
AcDbEntity
  8
1
  6
Continuous
 62
     3
100
AcDbHatch
 10
0.0
 20
0.0
 30
0.0
210
0.0
220
0.0
230
1.0
  2
SOLID
 70
     1
 71
     1
 91
        1
 92
        1
 93
       16
 72
     1
 10
0.0536463891345136
 20
15.61456849433523
 11
0.0536463891345136
 21
13.61456849433523
 72
     1
 10
0.0536463891345136
 20
13.61456849433523
 11
39.0536463891345
 21
13.61456849433523
 72
     2
 10
39.0536463891345
 20
12.61456849433523
 40
1.0
 50
270.0
 51
360.0
 73
     0
 72
     1
 10
40.0536463891345
 20
12.61456849433523
 11
40.0536463891345
 21
-21.38543150566477
 72
     2
 10
39.0536463891345
 20
-21.38543150566477
 40
1.0
 50
0.0
 51
90.0
 73
     0
 72
     1
 10
39.0536463891345
 20
-22.38543150566477
 11
3.053646389134514
 21
-22.38543150566477
 72
     2
 10
3.053646389134514
 20
-21.38543150566477
 40
1.0
 50
90.0
 51
180.0
 73
     0
 72
     1
 10
2.053646389134514
 20
-21.38543150566477
 11
2.053646389134514
 21
-13.38543150566477
 72
     1
 10
2.053646389134514
 20
-13.38543150566477
 11
0.0536463891345136
 21
-13.38543150566477
 72
     1
 10
0.0536463891345136
 20
-13.38543150566477
 11
0.0536463891345136
 21
-22.38543150566477
 72
     2
 10
2.053646389134514
 20
-22.38543150566477
 40
2.0
 50
180.0
 51
270.0
 73
     1
 72
     1
 10
2.053646389134514
 20
-24.38543150566477
 11
40.0536463891345
 21
-24.38543150566477
 72
     2
 10
40.0536463891345
 20
-22.38543150566477
 40
2.0
 50
270.0
 51
360.0
 73
     1
 72
     1
 10
42.0536463891345
 20
-22.38543150566477
 11
42.0536463891347
 21
13.61456849433523
 72
     2
 10
40.0536463891345
 20
13.61456849433512
 40
2.000000000000199
 50
0.0000000000031551
 51
90.0
 73
     1
 72
     1
 10
40.0536463891345
 20
15.61456849433523
 11
0.0536463891345136
 21
15.61456849433523
 97
       16
330
1A4
330
124
330
1A3
330
123
330
1A2
330
122
330
121
330
12A
330
1A7
330
129
330
1A6
330
128
330
1A5
330
127
330
126
330
125
 75
     0
 76
     1
 98
        1
 10
0.0
 20
0.0
  0
ENDSEC
  0
SECTION
  2
OBJECTS
  0
DICTIONARY
  5
C
330
0
100
AcDbDictionary
281
     1
  3
ACAD_GROUP
350
D
  3
ACAD_LAYOUT
350
1A
  3
ACAD_MLINESTYLE
350
17
  3
ACAD_PLOTSETTINGS
350
19
  3
ACAD_PLOTSTYLENAME
350
E
  0
DICTIONARY
  5
D
102
{ACAD_REACTORS
330
C
102
}
330
C
100
AcDbDictionary
281
     1
  0
DICTIONARY
  5
1A
102
{ACAD_REACTORS
330
C
102
}
330
C
100
AcDbDictionary
281
     1
  3
Layout1
350
1E
  3
Layout2
350
26
  3
Model
350
22
  0
DICTIONARY
  5
17
102
{ACAD_REACTORS
330
C
102
}
330
C
100
AcDbDictionary
281
     1
  3
Standard
350
18
  0
DICTIONARY
  5
19
102
{ACAD_REACTORS
330
C
102
}
330
C
100
AcDbDictionary
281
     1
  0
ACDBDICTIONARYWDFLT
  5
E
102
{ACAD_REACTORS
330
C
102
}
330
C
100
AcDbDictionary
281
     1
  3
Normal
350
F
100
AcDbDictionaryWithDefault
340
F
  0
LAYOUT
  5
1E
102
{ACAD_REACTORS
330
1A
102
}
330
1A
100
AcDbPlotSettings
  1

  2

  4

  6

 40
0.0
 41
0.0
 42
0.0
 43
0.0
 44
0.0
 45
0.0
 46
0.0
 47
0.0
 48
0.0
 49
0.0
140
0.0
141
0.0
142
1.0
143
1.0
 70
   688
 72
     0
 73
     0
 74
     5
  7

 75
    16
 76
     0
 77
     2
 78
   300
147
1.0
148
0.0
149
0.0
100
AcDbLayout
  1
Layout1
 70
     1
 71
     1
 10
0.0
 20
0.0
 11
0.0
 21
0.0
 12
0.0
 22
0.0
 32
0.0
 14
0.0
 24
0.0
 34
0.0
 15
0.0
 25
0.0
 35
0.0
146
0.0
 13
0.0
 23
0.0
 33
0.0
 16
1.0
 26
0.0
 36
0.0
 17
0.0
 27
1.0
 37
0.0
 76
     0
330
1B
  0
LAYOUT
  5
26
102
{ACAD_REACTORS
330
1A
102
}
330
1A
100
AcDbPlotSettings
  1

  2

  4

  6

 40
0.0
 41
0.0
 42
0.0
 43
0.0
 44
0.0
 45
0.0
 46
0.0
 47
0.0
 48
0.0
 49
0.0
140
0.0
141
0.0
142
1.0
143
1.0
 70
   688
 72
     0
 73
     0
 74
     5
  7

 75
    16
 76
     0
 77
     2
 78
   300
147
1.0
148
0.0
149
0.0
100
AcDbLayout
  1
Layout2
 70
     1
 71
     2
 10
0.0
 20
0.0
 11
0.0
 21
0.0
 12
0.0
 22
0.0
 32
0.0
 14
0.0
 24
0.0
 34
0.0
 15
0.0
 25
0.0
 35
0.0
146
0.0
 13
0.0
 23
0.0
 33
0.0
 16
1.0
 26
0.0
 36
0.0
 17
0.0
 27
1.0
 37
0.0
 76
     0
330
23
  0
LAYOUT
  5
22
102
{ACAD_REACTORS
330
1A
102
}
330
1A
100
AcDbPlotSettings
  1

  2

  4

  6

 40
0.0
 41
0.0
 42
0.0
 43
0.0
 44
0.0
 45
0.0
 46
0.0
 47
0.0
 48
0.0
 49
0.0
140
0.0
141
0.0
142
1.0
143
1.0
 70
  1712
 72
     0
 73
     0
 74
     0
  7

 75
     0
 76
     0
 77
     2
 78
   300
147
1.0
148
0.0
149
0.0
100
AcDbLayout
  1
Model
 70
     1
 71
     0
 10
0.0
 20
0.0
 11
0.0
 21
0.0
 12
0.0
 22
0.0
 32
0.0
 14
-65.5679934267556
 24
-28.12780486113309
 34
0.0
 15
73.43322449661126
 25
50.11595667671577
 35
0.0
146
0.0
 13
0.0
 23
0.0
 33
0.0
 16
1.0
 26
0.0
 36
0.0
 17
0.0
 27
1.0
 37
0.0
 76
     0
330
1F
  0
MLINESTYLE
  5
18
102
{ACAD_REACTORS
330
17
102
}
330
17
100
AcDbMlineStyle
  2
Standard
 70
     0
  3

 62
   256
 51
90.0
 52
90.0
 71
     2
 49
0.5
 62
   256
  6
BYLAYER
 49
-0.5
 62
   256
  6
BYLAYER
  0
ACDBPLACEHOLDER
  5
F
102
{ACAD_REACTORS
330
E
102
}
330
E
  0
ENDSEC
  0
EOF
