  0
SECTION
  2
HEADER
  9
$ACADVER
  1
AC1018
  9
$ACADMAINTVER
 70
     0
  9
$DWGCODEPAGE
  3
ANSI_1252
  9
$INSBASE
 10
0.0
 20
0.0
 30
0.0
  9
$EXTMIN
 10
-52.45842906538996
 20
-27.20547035867941
 30
0.0
  9
$EXTMAX
 10
71.54157093461004
 20
55.23922451609741
 30
0.0
  9
$LIMMIN
 10
0.0
 20
0.0
  9
$LIMMAX
 10
12.0
 20
9.0
  9
$ORTHOMODE
 70
     0
  9
$REGENMODE
 70
     1
  9
$FILLMODE
 70
     1
  9
$QTEXTMODE
 70
     0
  9
$MIRRTEXT
 70
     1
  9
$LTSCALE
 40
1.0
  9
$ATTMODE
 70
     1
  9
$TEXTSIZE
 40
0.2
  9
$TRACEWID
 40
0.05
  9
$TEXTSTYLE
  7
Standard
  9
$CLAYER
  8
0
  9
$CELTYPE
  6
ByLayer
  9
$CECOLOR
 62
   256
  9
$CELTSCALE
 40
1.0
  9
$DISPSILH
 70
     0
  9
$DIMSCALE
 40
1.0
  9
$DIMASZ
 40
0.18
  9
$DIMEXO
 40
0.0625
  9
$DIMDLI
 40
0.38
  9
$DIMRND
 40
0.0
  9
$DIMDLE
 40
0.0
  9
$DIMEXE
 40
0.18
  9
$DIMTP
 40
0.0
  9
$DIMTM
 40
0.0
  9
$DIMTXT
 40
0.18
  9
$DIMCEN
 40
0.09
  9
$DIMTSZ
 40
0.0
  9
$DIMTOL
 70
     0
  9
$DIMLIM
 70
     0
  9
$DIMTIH
 70
     1
  9
$DIMTOH
 70
     1
  9
$DIMSE1
 70
     0
  9
$DIMSE2
 70
     0
  9
$DIMTAD
 70
     0
  9
$DIMZIN
 70
     0
  9
$DIMBLK
  1

  9
$DIMASO
 70
     1
  9
$DIMSHO
 70
     1
  9
$DIMPOST
  1

  9
$DIMAPOST
  1

  9
$DIMALT
 70
     0
  9
$DIMALTD
 70
     2
  9
$DIMALTF
 40
25.4
  9
$DIMLFAC
 40
1.0
  9
$DIMTOFL
 70
     0
  9
$DIMTVP
 40
0.0
  9
$DIMTIX
 70
     0
  9
$DIMSOXD
 70
     0
  9
$DIMSAH
 70
     0
  9
$DIMBLK1
  1

  9
$DIMBLK2
  1

  9
$DIMSTYLE
  2
Standard
  9
$DIMCLRD
 70
     0
  9
$DIMCLRE
 70
     0
  9
$DIMCLRT
 70
     0
  9
$DIMTFAC
 40
1.0
  9
$DIMGAP
 40
0.09
  9
$DIMJUST
 70
     0
  9
$DIMSD1
 70
     0
  9
$DIMSD2
 70
     0
  9
$DIMTOLJ
 70
     1
  9
$DIMTZIN
 70
     0
  9
$DIMALTZ
 70
     0
  9
$DIMALTTZ
 70
     0
  9
$DIMUPT
 70
     0
  9
$DIMDEC
 70
     4
  9
$DIMTDEC
 70
     4
  9
$DIMALTU
 70
     2
  9
$DIMALTTD
 70
     2
  9
$DIMTXSTY
  7
Standard
  9
$DIMAUNIT
 70
     0
  9
$DIMADEC
 70
     0
  9
$DIMALTRND
 40
0.0
  9
$DIMAZIN
 70
     0
  9
$DIMDSEP
 70
    46
  9
$DIMATFIT
 70
     3
  9
$DIMFRAC
 70
     0
  9
$DIMLDRBLK
  1

  9
$DIMLUNIT
 70
     2
  9
$DIMLWD
 70
    -2
  9
$DIMLWE
 70
    -2
  9
$DIMTMOVE
 70
     0
  9
$LUNITS
 70
     2
  9
$LUPREC
 70
     4
  9
$SKETCHINC
 40
0.1
  9
$FILLETRAD
 40
0.5
  9
$AUNITS
 70
     0
  9
$AUPREC
 70
     0
  9
$MENU
  1
.
  9
$ELEVATION
 40
0.0
  9
$PELEVATION
 40
0.0
  9
$THICKNESS
 40
0.0
  9
$LIMCHECK
 70
     0
  9
$CHAMFERA
 40
0.5
  9
$CHAMFERB
 40
0.5
  9
$CHAMFERC
 40
1.0
  9
$CHAMFERD
 40
0.0
  9
$SKPOLY
 70
     0
  9
$TDCREATE
 40
2454483.382247176
  9
$TDUCREATE
 40
2454483.340580509
  9
$TDUPDATE
 40
2454483.382247188
  9
$TDUUPDATE
 40
2454483.340580521
  9
$TDINDWG
 40
0.0000000116
  9
$TDUSRTIMER
 40
0.0000000116
  9
$USRTIMER
 70
     1
  9
$ANGBASE
 50
0.0
  9
$ANGDIR
 70
     0
  9
$PDMODE
 70
     0
  9
$PDSIZE
 40
0.0
  9
$PLINEWID
 40
0.0
  9
$SPLFRAME
 70
     0
  9
$SPLINETYPE
 70
     6
  9
$SPLINESEGS
 70
     8
  9
$HANDSEED
  5
193
  9
$SURFTAB1
 70
     6
  9
$SURFTAB2
 70
     6
  9
$SURFTYPE
 70
     6
  9
$SURFU
 70
     6
  9
$SURFV
 70
     6
  9
$UCSBASE
  2

  9
$UCSNAME
  2

  9
$UCSORG
 10
0.0
 20
0.0
 30
0.0
  9
$UCSXDIR
 10
1.0
 20
0.0
 30
0.0
  9
$UCSYDIR
 10
0.0
 20
1.0
 30
0.0
  9
$UCSORTHOREF
  2

  9
$UCSORTHOVIEW
 70
     0
  9
$UCSORGTOP
 10
0.0
 20
0.0
 30
0.0
  9
$UCSORGBOTTOM
 10
0.0
 20
0.0
 30
0.0
  9
$UCSORGLEFT
 10
0.0
 20
0.0
 30
0.0
  9
$UCSORGRIGHT
 10
0.0
 20
0.0
 30
0.0
  9
$UCSORGFRONT
 10
0.0
 20
0.0
 30
0.0
  9
$UCSORGBACK
 10
0.0
 20
0.0
 30
0.0
  9
$PUCSBASE
  2

  9
$PUCSNAME
  2

  9
$PUCSORG
 10
0.0
 20
0.0
 30
0.0
  9
$PUCSXDIR
 10
1.0
 20
0.0
 30
0.0
  9
$PUCSYDIR
 10
0.0
 20
1.0
 30
0.0
  9
$PUCSORTHOREF
  2

  9
$PUCSORTHOVIEW
 70
     0
  9
$PUCSORGTOP
 10
0.0
 20
0.0
 30
0.0
  9
$PUCSORGBOTTOM
 10
0.0
 20
0.0
 30
0.0
  9
$PUCSORGLEFT
 10
0.0
 20
0.0
 30
0.0
  9
$PUCSORGRIGHT
 10
0.0
 20
0.0
 30
0.0
  9
$PUCSORGFRONT
 10
0.0
 20
0.0
 30
0.0
  9
$PUCSORGBACK
 10
0.0
 20
0.0
 30
0.0
  9
$USERI1
 70
     0
  9
$USERI2
 70
     0
  9
$USERI3
 70
     0
  9
$USERI4
 70
     0
  9
$USERI5
 70
     0
  9
$USERR1
 40
14.5
  9
$USERR2
 40
0.0
  9
$USERR3
 40
0.0
  9
$USERR4
 40
0.0
  9
$USERR5
 40
0.0
  9
$WORLDVIEW
 70
     1
  9
$SHADEDGE
 70
     3
  9
$SHADEDIF
 70
    70
  9
$TILEMODE
 70
     1
  9
$MAXACTVP
 70
    64
  9
$PINSBASE
 10
0.0
 20
0.0
 30
0.0
  9
$PLIMCHECK
 70
     0
  9
$PEXTMIN
 10
1.00000000000000E+20
 20
1.00000000000000E+20
 30
1.00000000000000E+20
  9
$PEXTMAX
 10
-1.00000000000000E+20
 20
-1.00000000000000E+20
 30
-1.00000000000000E+20
  9
$PLIMMIN
 10
0.0
 20
0.0
  9
$PLIMMAX
 10
12.0
 20
9.0
  9
$UNITMODE
 70
     0
  9
$VISRETAIN
 70
     1
  9
$PLINEGEN
 70
     0
  9
$PSLTSCALE
 70
     1
  9
$TREEDEPTH
 70
  3020
  9
$CMLSTYLE
  2
Standard
  9
$CMLJUST
 70
     0
  9
$CMLSCALE
 40
1.0
  9
$PROXYGRAPHICS
 70
     1
  9
$MEASUREMENT
 70
     1
  9
$CELWEIGHT
370
    -1
  9
$ENDCAPS
280
     0
  9
$JOINSTYLE
280
     0
  9
$LWDISPLAY
290
     0
  9
$INSUNITS
 70
     1
  9
$HYPERLINKBASE
  1

  9
$STYLESHEET
  1

  9
$XEDIT
290
     1
  9
$CEPSNTYPE
380
     0
  9
$PSTYLEMODE
290
     1
  9
$FINGERPRINTGUID
  2
{CBA74CC9-F23C-41EA-9CEC-19BAE335FF80}
  9
$VERSIONGUID
  2
{FAEB1C32-E019-11D5-929B-00C0DF256EC4}
  9
$EXTNAMES
290
     1
  9
$PSVPSCALE
 40
0.0
  9
$OLESTARTUP
290
     0
  9
$SORTENTS
280
   127
  9
$INDEXCTL
280
     0
  9
$HIDETEXT
280
     1
  9
$XCLIPFRAME
290
     0
  9
$HALOGAP
280
     0
  9
$OBSCOLOR
 70
   257
  9
$OBSLTYPE
280
     0
  9
$INTERSECTIONDISPLAY
280
     0
  9
$INTERSECTIONCOLOR
 70
   257
  9
$DIMASSOC
280
     2
  9
$PROJECTNAME
  1

  0
ENDSEC
  0
SECTION
  2
CLASSES
  0
CLASS
  1
ACDBDICTIONARYWDFLT
  2
AcDbDictionaryWithDefault
  3
ObjectDBX Classes
 90
        0
 91
        3
280
     0
281
     0
  0
CLASS
  1

  2
exOdDbCircle
  3

 90
        0
 91
        3
280
     0
281
     1
  0
ENDSEC
  0
SECTION
  2
TABLES
  0
TABLE
  2
VPORT
  5
8
330
0
100
AcDbSymbolTable
 70
     1
  0
VPORT
  5
29
330
8
100
AcDbSymbolTableRecord
100
AcDbViewportTableRecord
  2
*Active
 70
     0
 10
0.0
 20
0.0
 11
1.0
 21
1.0
 12
9.54157093461004
 22
14.016877078709
 13
0.0
 23
0.0
 14
0.5
 24
0.5
 15
0.5
 25
0.5
 16
0.0
 26
0.0
 36
1.0
 17
0.0
 27
0.0
 37
0.0
 40
90.6891643622545
 41
1.60267857142857
 42
50.0
 43
0.0
 44
0.0
 50
0.0
 51
0.0
 71
     0
 72
   100
 73
     1
 74
     3
 75
     0
 76
     0
 77
     0
 78
     0
281
     0
 65
     1
110
0.0
120
0.0
130
0.0
111
1.0
121
0.0
131
0.0
112
0.0
122
1.0
132
0.0
 79
     0
146
0.0
  0
ENDTAB
  0
TABLE
  2
LTYPE
  5
5
330
0
100
AcDbSymbolTable
 70
     8
  0
LTYPE
  5
14
330
5
100
AcDbSymbolTableRecord
100
AcDbLinetypeTableRecord
  2
ByBlock
 70
     0
  3

 72
    65
 73
     0
 40
0.0
  0
LTYPE
  5
15
330
5
100
AcDbSymbolTableRecord
100
AcDbLinetypeTableRecord
  2
ByLayer
 70
     0
  3

 72
    65
 73
     0
 40
0.0
  0
LTYPE
  5
16
330
5
100
AcDbSymbolTableRecord
100
AcDbLinetypeTableRecord
  2
Continuous
 70
     0
  3
Solid line
 72
    65
 73
     0
 40
0.0
  0
LTYPE
  5
2A
330
5
100
AcDbSymbolTableRecord
100
AcDbLinetypeTableRecord
  2
DASHED
 70
     0
  3
Dashed
 72
    65
 73
     2
 40
15.0
 49
7.0
 74
     0
 49
-8.0
 74
     0
  0
LTYPE
  5
2B
330
5
100
AcDbSymbolTableRecord
100
AcDbLinetypeTableRecord
  2
DOTTED
 70
     0
  3
Dotted
 72
    65
 73
     2
 40
1.0
 49
0.0
 74
     0
 49
-1.0
 74
     0
  0
LTYPE
  5
2C
330
5
100
AcDbSymbolTableRecord
100
AcDbLinetypeTableRecord
  2
DOT_CENTER
 70
     0
  3
Dot_Center
 72
    65
 73
     4
 40
14.0
 49
12.0
 74
     0
 49
-1.0
 74
     0
 49
0.0
 74
     0
 49
-1.0
 74
     0
  0
LTYPE
  5
2D
330
5
100
AcDbSymbolTableRecord
100
AcDbLinetypeTableRecord
  2
LONG_DASHED
 70
     0
  3
Long_Dashed
 72
    65
 73
     2
 40
15.0
 49
10.0
 74
     0
 49
-5.0
 74
     0
  0
LTYPE
  5
2E
330
5
100
AcDbSymbolTableRecord
100
AcDbLinetypeTableRecord
  2
DASH_CENTER
 70
     0
  3
Dash_Center
 72
    65
 73
     4
 40
14.0
 49
11.0
 74
     0
 49
-1.0
 74
     0
 49
1.0
 74
     0
 49
-1.0
 74
     0
  0
LTYPE
  5
2F
330
5
100
AcDbSymbolTableRecord
100
AcDbLinetypeTableRecord
  2
PHANTOM
 70
     0
  3
Phantom
 72
    65
 73
     6
 40
13.0
 49
10.0
 74
     0
 49
-1.0
 74
     0
 49
0.0
 74
     0
 49
-1.0
 74
     0
 49
0.0
 74
     0
 49
-1.0
 74
     0
  0
LTYPE
  5
30
330
5
100
AcDbSymbolTableRecord
100
AcDbLinetypeTableRecord
  2
CENTER_DASH_DASH
 70
     0
  3
Center_Dash_Dash
 72
    65
 73
     6
 40
14.0
 49
9.0
 74
     0
 49
-1.0
 74
     0
 49
1.0
 74
     0
 49
-1.0
 74
     0
 49
1.0
 74
     0
 49
-1.0
 74
     0
  0
ENDTAB
  0
TABLE
  2
LAYER
  5
2
330
0
100
AcDbSymbolTable
 70
     2
  0
LAYER
  5
10
330
2
100
AcDbSymbolTableRecord
100
AcDbLayerTableRecord
  2
0
 70
     0
 62
     7
  6
Continuous
370
    -3
390
F
  0
LAYER
  5
31
330
2
100
AcDbSymbolTableRecord
100
AcDbLayerTableRecord
  2
1
 70
     0
 62
     7
  6
Continuous
370
    -3
390
F
  0
ENDTAB
  0
TABLE
  2
STYLE
  5
3
330
0
100
AcDbSymbolTable
 70
     1
  0
STYLE
  5
11
330
3
100
AcDbSymbolTableRecord
100
AcDbTextStyleTableRecord
  2
Standard
 70
     0
 40
0.0
 41
1.0
 50
0.0
 71
     0
 42
0.2
  3
txt
  4

  0
ENDTAB
  0
TABLE
  2
VIEW
  5
6
330
0
100
AcDbSymbolTable
 70
     0
  0
ENDTAB
  0
TABLE
  2
UCS
  5
7
330
0
100
AcDbSymbolTable
 70
     0
  0
ENDTAB
  0
TABLE
  2
APPID
  5
9
330
0
100
AcDbSymbolTable
 70
     1
  0
APPID
  5
12
330
9
100
AcDbSymbolTableRecord
100
AcDbRegAppTableRecord
  2
ACAD
 70
     0
  0
ENDTAB
  0
TABLE
  2
DIMSTYLE
  5
A
330
0
100
AcDbSymbolTable
 70
     1
100
AcDbDimStyleTable
  0
DIMSTYLE
105
27
330
A
100
AcDbSymbolTableRecord
100
AcDbDimStyleTableRecord
  2
Standard
 70
     0
340
11
  0
ENDTAB
  0
TABLE
  2
BLOCK_RECORD
  5
1
330
0
100
AcDbSymbolTable
 70
     1
  0
BLOCK_RECORD
  5
1F
330
1
100
AcDbSymbolTableRecord
100
AcDbBlockTableRecord
  2
*Model_Space
340
22
  0
BLOCK_RECORD
  5
1B
330
1
100
AcDbSymbolTableRecord
100
AcDbBlockTableRecord
  2
*Paper_Space
340
1E
  0
BLOCK_RECORD
  5
23
330
1
100
AcDbSymbolTableRecord
100
AcDbBlockTableRecord
  2
*Paper_Space0
340
26
  0
ENDTAB
  0
ENDSEC
  0
SECTION
  2
BLOCKS
  0
BLOCK
  5
20
330
1F
100
AcDbEntity
  8
0
100
AcDbBlockBegin
  2
*Model_Space
 70
     0
 71
     0
 10
0.0
 20
0.0
 30
0.0
  3
*Model_Space
  1

  0
ENDBLK
  5
21
330
1F
100
AcDbEntity
  8
0
100
AcDbBlockEnd
  0
BLOCK
  5
1C
330
1B
100
AcDbEntity
 67
     1
  8
0
100
AcDbBlockBegin
  2
*Paper_Space
 70
     0
 71
     0
 10
0.0
 20
0.0
 30
0.0
  3
*Paper_Space
  1

  0
ENDBLK
  5
1D
330
1B
100
AcDbEntity
 67
     1
  8
0
100
AcDbBlockEnd
  0
BLOCK
  5
24
330
23
100
AcDbEntity
  8
0
100
AcDbBlockBegin
  2
*Paper_Space0
 70
     0
 71
     0
 10
0.0
 20
0.0
 30
0.0
  3
*Paper_Space0
  1

  0
ENDBLK
  5
25
330
23
100
AcDbEntity
  8
0
100
AcDbBlockEnd
  0
ENDSEC
  0
SECTION
  2
ENTITIES
  0
POINT
  5
32
330
1F
100
AcDbEntity
  8
1
 62
     3
 60
     1
100
AcDbPoint
 10
-21.95842906538996
 20
-19.76077548390261
 30
0.0
  0
LINE
  5
33
330
1F
100
AcDbEntity
  8
1
  6
DOT_CENTER
 62
     2
100
AcDbLine
 10
-18.20842906538996
 20
-19.76077548390261
 30
0.0
 11
-29.23414019752497
 21
-19.76077548390261
 31
0.0
  0
LINE
  5
34
102
{ACAD_REACTORS
330
192
330
192
102
}
330
1F
100
AcDbEntity
  8
1
  6
Continuous
 62
     7
100
AcDbLine
 10
41.04157093461004
 20
25.7392245160974
 30
0.0
 11
25.33569396546617
 21
25.7392245160974
 31
0.0
  0
LINE
  5
35
102
{ACAD_REACTORS
330
192
330
192
102
}
330
1F
100
AcDbEntity
  8
1
  6
Continuous
 62
     7
100
AcDbLine
 10
41.54157093461004
 20
-20.26077548390261
 30
0.0
 11
41.54157093461004
 21
25.2392245160974
 31
0.0
  0
LINE
  5
36
102
{ACAD_REACTORS
330
192
330
192
102
}
330
1F
100
AcDbEntity
  8
1
  6
Continuous
 62
     7
100
AcDbLine
 10
35.04157093461004
 20
-20.76077548390261
 30
0.0
 11
41.04157093461004
 21
-20.76077548390261
 31
0.0
  0
LINE
  5
37
102
{ACAD_REACTORS
330
192
330
192
102
}
330
1F
100
AcDbEntity
  8
1
  6
Continuous
 62
     7
100
AcDbLine
 10
34.54157093461004
 20
-12.26077548390261
 30
0.0
 11
34.54157093461004
 21
-20.26077548390261
 31
0.0
  0
LINE
  5
38
102
{ACAD_REACTORS
330
192
330
192
102
}
330
1F
100
AcDbEntity
  8
1
  6
Continuous
 62
     7
100
AcDbLine
 10
33.04157093461004
 20
-12.26077548390261
 30
0.0
 11
34.54157093461004
 21
-12.26077548390261
 31
0.0
  0
LINE
  5
39
102
{ACAD_REACTORS
330
192
330
192
102
}
330
1F
100
AcDbEntity
  8
1
  6
Continuous
 62
     7
100
AcDbLine
 10
33.04157093461004
 20
-20.26077548390261
 30
0.0
 11
33.04157093461004
 21
-12.26077548390261
 31
0.0
  0
LINE
  5
3A
102
{ACAD_REACTORS
330
192
330
192
102
}
330
1F
100
AcDbEntity
  8
1
  6
Continuous
 62
     7
100
AcDbLine
 10
41.04157093461004
 20
-22.26077548390261
 30
0.0
 11
35.04157093461004
 21
-22.26077548390261
 31
0.0
  0
LINE
  5
3B
102
{ACAD_REACTORS
330
192
330
192
102
}
330
1F
100
AcDbEntity
  8
1
  6
Continuous
 62
     7
100
AcDbLine
 10
43.04157093461004
 20
25.2392245160974
 30
0.0
 11
43.04157093461004
 21
-20.26077548390261
 31
0.0
  0
LINE
  5
3C
102
{ACAD_REACTORS
330
192
330
192
102
}
330
1F
100
AcDbEntity
  8
1
  6
Continuous
 62
     7
100
AcDbLine
 10
25.33569396546617
 20
27.2392245160974
 30
0.0
 11
41.04157093461004
 21
27.2392245160974
 31
0.0
  0
LINE
  5
3D
102
{ACAD_REACTORS
330
192
330
192
102
}
330
1F
100
AcDbEntity
  8
1
  6
Continuous
 62
     7
100
AcDbLine
 10
22.54157093461004
 20
15.23922451609739
 30
0.0
 11
23.36607845944176
 21
25.58652087143126
 31
0.0
  0
LINE
  5
3E
102
{ACAD_REACTORS
330
192
330
192
102
}
330
1F
100
AcDbEntity
  8
1
  6
Continuous
 62
     7
100
AcDbLine
 10
24.01878256412834
 20
14.97875224959699
 30
0.0
 11
22.54157093461004
 21
15.23922451609739
 31
0.0
  0
LINE
  5
3F
102
{ACAD_REACTORS
330
192
330
192
102
}
330
1F
100
AcDbEntity
  8
1
  6
Continuous
 62
     7
100
AcDbLine
 10
24.84329008896008
 20
25.32604860493086
 30
0.0
 11
24.01878256412834
 21
14.97875224959699
 31
0.0
  0
LINE
  5
40
102
{ACAD_REACTORS
330
191
330
191
102
}
330
1F
100
AcDbEntity
  8
1
  6
Continuous
 62
     7
100
AcDbLine
 10
-41.45842906538996
 20
41.23922451609741
 30
0.0
 11
-41.45842906538996
 21
6.23922451609741
 31
0.0
  0
LINE
  5
41
102
{ACAD_REACTORS
330
191
330
191
102
}
330
1F
100
AcDbEntity
  8
1
  6
Continuous
 62
     7
100
AcDbLine
 10
-14.95842906538997
 20
41.73922451609741
 30
0.0
 11
-40.95842906538996
 21
41.73922451609741
 31
0.0
  0
LINE
  5
42
102
{ACAD_REACTORS
330
191
330
191
102
}
330
1F
100
AcDbEntity
  8
1
  6
Continuous
 62
     7
100
AcDbLine
 10
-14.45842906538997
 20
6.23922451609741
 30
0.0
 11
-14.45842906538997
 21
41.23922451609741
 31
0.0
  0
LINE
  5
43
102
{ACAD_REACTORS
330
191
330
191
102
}
330
1F
100
AcDbEntity
  8
1
  6
Continuous
 62
     7
100
AcDbLine
 10
-40.95842906538996
 20
5.73922451609741
 30
0.0
 11
-14.95842906538997
 21
5.73922451609741
 31
0.0
  0
LINE
  5
44
102
{ACAD_REACTORS
330
191
330
191
102
}
330
1F
100
AcDbEntity
  8
1
  6
Continuous
 62
     7
100
AcDbLine
 10
-43.45842906538996
 20
41.23922451609741
 30
0.0
 11
-43.45842906538996
 21
6.23922451609741
 31
0.0
  0
LINE
  5
45
102
{ACAD_REACTORS
330
191
330
191
102
}
330
1F
100
AcDbEntity
  8
1
  6
Continuous
 62
     7
100
AcDbLine
 10
-14.95842906538997
 20
43.73922451609741
 30
0.0
 11
-40.95842906538996
 21
43.73922451609741
 31
0.0
  0
LINE
  5
46
102
{ACAD_REACTORS
330
191
330
191
102
}
330
1F
100
AcDbEntity
  8
1
  6
Continuous
 62
     7
100
AcDbLine
 10
-12.45842906538997
 20
6.23922451609741
 30
0.0
 11
-12.45842906538997
 21
41.23922451609741
 31
0.0
  0
LINE
  5
47
102
{ACAD_REACTORS
330
191
330
191
102
}
330
1F
100
AcDbEntity
  8
1
  6
Continuous
 62
     7
100
AcDbLine
 10
-40.95842906538996
 20
3.73922451609741
 30
0.0
 11
-14.95842906538997
 21
3.73922451609741
 31
0.0
  0
LINE
  5
48
330
1F
100
AcDbEntity
  8
1
  6
Continuous
 62
     7
100
AcDbLine
 10
-8.95842906538996
 20
44.23922451609741
 30
0.0
 11
-2.95842906538996
 21
44.23922451609739
 31
0.0
  0
LINE
  5
49
330
1F
100
AcDbEntity
  8
1
  6
Continuous
 62
     7
100
AcDbLine
 10
-8.95842906538996
 20
40.23922451609739
 30
0.0
 11
-8.95842906538996
 21
44.23922451609741
 31
0.0
  0
LINE
  5
4A
330
1F
100
AcDbEntity
  8
1
  6
Continuous
 62
     7
100
AcDbLine
 10
-10.45842906538997
 20
40.23922451609739
 30
0.0
 11
-8.95842906538996
 21
40.23922451609739
 31
0.0
  0
LINE
  5
4B
330
1F
100
AcDbEntity
  8
1
  6
Continuous
 62
     7
100
AcDbLine
 10
-10.45842906538997
 20
44.23922451609741
 30
0.0
 11
-10.45842906538997
 21
40.23922451609739
 31
0.0
  0
LINE
  5
4C
330
1F
100
AcDbEntity
  8
1
  6
Continuous
 62
     7
100
AcDbLine
 10
5.04157093461004
 20
45.73922451609738
 30
0.0
 11
13.71994211354189
 21
45.73922451609739
 31
0.0
  0
LINE
  5
4D
330
1F
100
AcDbEntity
  8
1
  6
Continuous
 62
     7
100
AcDbLine
 10
5.04157093461004
 20
52.23922451609738
 30
0.0
 11
5.04157093461004
 21
45.73922451609738
 31
0.0
  0
LINE
  5
4E
330
1F
100
AcDbEntity
  8
1
  6
Continuous
 62
     7
100
AcDbLine
 10
18.42746743294854
 20
52.23922451609738
 30
0.0
 11
5.04157093461004
 21
52.23922451609738
 31
0.0
  0
LINE
  5
4F
330
1F
100
AcDbEntity
  8
1
  6
Continuous
 62
     7
100
AcDbLine
 10
0.04157093461004
 20
42.73922451609739
 30
0.0
 11
15.97859156030781
 21
42.73922451609739
 31
0.0
  0
LINE
  5
50
330
1F
100
AcDbEntity
  8
1
  6
Continuous
 62
     7
100
AcDbLine
 10
0.04157093461004
 20
20.73922451609739
 30
0.0
 11
0.04157093461004
 21
42.73922451609739
 31
0.0
  0
LINE
  5
51
330
1F
100
AcDbEntity
  8
1
  6
Continuous
 62
     7
100
AcDbLine
 10
-2.95842906538996
 20
44.23922451609739
 30
0.0
 11
-2.95842906538996
 21
20.73922451609739
 31
0.0
  0
LINE
  5
52
330
1F
100
AcDbEntity
  8
1
  6
Continuous
 62
     7
100
AcDbLine
 10
-44.45842906538996
 20
44.23922451609741
 30
0.0
 11
-10.45842906538997
 21
44.23922451609741
 31
0.0
  0
LINE
  5
53
330
1F
100
AcDbEntity
  8
1
  6
Continuous
 62
     7
100
AcDbLine
 10
-44.45842906538996
 20
44.23922451609741
 30
0.0
 11
-44.45842906538996
 21
3.23922451609741
 31
0.0
  0
LINE
  5
54
330
1F
100
AcDbEntity
  8
1
  6
Continuous
 62
     7
100
AcDbLine
 10
-26.45842906538996
 20
52.23922451609738
 30
0.0
 11
-26.45842906538996
 21
45.73922451609739
 31
0.0
  0
LINE
  5
55
330
1F
100
AcDbEntity
  8
1
  6
Continuous
 62
     7
100
AcDbLine
 10
3.54157093461004
 20
52.23922451609738
 30
0.0
 11
-26.45842906538996
 21
52.23922451609738
 31
0.0
  0
LINE
  5
56
330
1F
100
AcDbEntity
  8
1
  6
Continuous
 62
     7
100
AcDbLine
 10
3.54157093461004
 20
45.73922451609739
 30
0.0
 11
3.54157093461004
 21
52.23922451609738
 31
0.0
  0
LINE
  5
57
330
1F
100
AcDbEntity
  8
1
  6
Continuous
 62
     7
100
AcDbLine
 10
-26.45842906538996
 20
45.73922451609739
 30
0.0
 11
3.54157093461004
 21
45.73922451609739
 31
0.0
  0
LINE
  5
58
330
1F
100
AcDbEntity
  8
1
  6
Continuous
 62
     7
100
AcDbLine
 10
-44.45842906538996
 20
52.23922451609738
 30
0.0
 11
-44.45842906538996
 21
45.73922451609741
 31
0.0
  0
LINE
  5
59
330
1F
100
AcDbEntity
  8
1
  6
Continuous
 62
     7
100
AcDbLine
 10
-27.95842906538996
 20
52.23922451609738
 30
0.0
 11
-44.45842906538996
 21
52.23922451609738
 31
0.0
  0
LINE
  5
5A
330
1F
100
AcDbEntity
  8
1
  6
Continuous
 62
     7
100
AcDbLine
 10
-27.95842906538996
 20
45.73922451609741
 30
0.0
 11
-27.95842906538996
 21
52.23922451609738
 31
0.0
  0
LINE
  5
5B
330
1F
100
AcDbEntity
  8
1
  6
Continuous
 62
     7
100
AcDbLine
 10
-44.45842906538996
 20
45.73922451609741
 30
0.0
 11
-27.95842906538996
 21
45.73922451609741
 31
0.0
  0
LINE
  5
5C
330
1F
100
AcDbEntity
  8
1
  6
Continuous
 62
     7
100
AcDbLine
 10
-47.45842906538994
 20
55.23922451609741
 30
0.0
 11
19.93340109255101
 21
55.23922451609738
 31
0.0
  0
LINE
  5
5D
330
1F
100
AcDbEntity
  8
1
  6
Continuous
 62
     7
100
AcDbLine
 10
19.73318287186642
 20
42.73922451609739
 30
0.0
 11
22.72656249270414
 21
42.73922451609739
 31
0.0
  0
LINE
  5
5E
330
1F
100
AcDbEntity
  8
1
  6
Continuous
 62
     7
100
AcDbLine
 10
19.73318287186642
 20
44.23922451609739
 30
0.0
 11
19.73318287186642
 21
42.73922451609739
 31
0.0
  0
LINE
  5
5F
330
1F
100
AcDbEntity
  8
1
  6
Continuous
 62
     7
100
AcDbLine
 10
20.73318287186642
 20
44.23922451609739
 30
0.0
 11
19.73318287186642
 21
44.23922451609739
 31
0.0
  0
LINE
  5
60
330
1F
100
AcDbEntity
  8
1
  6
Continuous
 62
     7
100
AcDbLine
 10
19.86853958227222
 20
47.23922451609738
 30
0.0
 11
20.73318287186642
 21
44.23922451609739
 31
0.0
  0
LINE
  5
61
330
1F
100
AcDbEntity
  8
1
  6
Continuous
 62
     7
100
AcDbLine
 10
15.5075725024332
 20
47.23922451609738
 30
0.0
 11
19.86853958227222
 21
47.23922451609738
 31
0.0
  0
LINE
  5
62
330
1F
100
AcDbEntity
  8
1
  6
Continuous
 62
     7
100
AcDbLine
 10
14.97859156030781
 20
44.23922451609739
 30
0.0
 11
15.5075725024332
 21
47.23922451609738
 31
0.0
  0
LINE
  5
63
330
1F
100
AcDbEntity
  8
1
  6
Continuous
 62
     7
100
AcDbLine
 10
15.97859156030781
 20
44.23922451609739
 30
0.0
 11
14.97859156030781
 21
44.23922451609739
 31
0.0
  0
LINE
  5
64
330
1F
100
AcDbEntity
  8
1
  6
Continuous
 62
     7
100
AcDbLine
 10
15.97859156030781
 20
42.73922451609739
 30
0.0
 11
15.97859156030781
 21
44.23922451609739
 31
0.0
  0
LINE
  5
65
330
1F
100
AcDbEntity
  8
1
  6
Continuous
 62
     7
100
AcDbLine
 10
23.07090583615328
 20
41.54447745360387
 30
0.0
 11
22.72656249270414
 21
42.73922451609739
 31
0.0
  0
LINE
  5
66
330
1F
100
AcDbEntity
  8
1
  6
Continuous
 62
     7
100
AcDbLine
 10
19.43621793747512
 20
48.73922451609738
 30
0.0
 11
18.42746743294854
 21
52.23922451609738
 31
0.0
  0
LINE
  5
67
330
1F
100
AcDbEntity
  8
1
  6
Continuous
 62
     7
100
AcDbLine
 10
15.08802268684456
 20
48.73922451609738
 30
0.0
 11
19.43621793747512
 21
48.73922451609738
 31
0.0
  0
LINE
  5
68
330
1F
100
AcDbEntity
  8
1
  6
Continuous
 62
     7
100
AcDbLine
 10
13.71994211354189
 20
45.73922451609739
 30
0.0
 11
14.10321493383236
 21
47.91287269376431
 31
0.0
  0
LINE
  5
69
330
1F
100
AcDbEntity
  8
1
  6
Continuous
 62
     7
100
AcDbLine
 10
20.90525119823971
 20
54.47482454171888
 30
0.0
 11
24.51223603306677
 21
41.95988961455412
 31
0.0
  0
LINE
  5
6A
330
1F
100
AcDbEntity
  8
1
  6
Continuous
 62
     7
100
AcDbLine
 10
-47.45842906538996
 20
23.73922451609741
 30
0.0
 11
-47.45842906538996
 21
43.23922451609739
 31
0.0
  0
LINE
  5
6B
330
1F
100
AcDbEntity
  8
1
  6
Continuous
 62
     7
100
AcDbLine
 10
-50.45842906538996
 20
23.73922451609741
 30
0.0
 11
-47.45842906538996
 21
23.73922451609741
 31
0.0
  0
LINE
  5
6C
330
1F
100
AcDbEntity
  8
1
  6
Continuous
 62
     7
100
AcDbLine
 10
-50.45842906538996
 20
26.23922451609741
 30
0.0
 11
-50.45842906538996
 21
23.73922451609741
 31
0.0
  0
LINE
  5
6D
330
1F
100
AcDbEntity
  8
1
  6
Continuous
 62
     7
100
AcDbLine
 10
-50.95842906538996
 20
26.23922451609741
 30
0.0
 11
-50.45842906538996
 21
26.23922451609741
 31
0.0
  0
LINE
  5
6E
330
1F
100
AcDbEntity
  8
1
  6
Continuous
 62
     7
100
AcDbLine
 10
-52.45842906538996
 20
24.73922451609741
 30
0.0
 11
-50.95842906538996
 21
26.23922451609741
 31
0.0
  0
LINE
  5
6F
330
1F
100
AcDbEntity
  8
1
  6
Continuous
 62
     7
100
AcDbLine
 10
-52.45842906538996
 20
20.73922451609741
 30
0.0
 11
-52.45842906538996
 21
24.73922451609741
 31
0.0
  0
LINE
  5
70
330
1F
100
AcDbEntity
  8
1
  6
Continuous
 62
     7
100
AcDbLine
 10
-50.95842906538996
 20
19.23922451609741
 30
0.0
 11
-52.45842906538996
 21
20.73922451609741
 31
0.0
  0
LINE
  5
71
330
1F
100
AcDbEntity
  8
1
  6
Continuous
 62
     7
100
AcDbLine
 10
-50.45842906538996
 20
19.23922451609741
 30
0.0
 11
-50.95842906538996
 21
19.23922451609741
 31
0.0
  0
LINE
  5
72
330
1F
100
AcDbEntity
  8
1
  6
Continuous
 62
     7
100
AcDbLine
 10
-50.45842906538996
 20
21.73922451609741
 30
0.0
 11
-50.45842906538996
 21
19.23922451609741
 31
0.0
  0
LINE
  5
73
330
1F
100
AcDbEntity
  8
1
  6
Continuous
 62
     7
100
AcDbLine
 10
-47.45842906538996
 20
21.73922451609741
 30
0.0
 11
-50.45842906538996
 21
21.73922451609741
 31
0.0
  0
LINE
  5
74
330
1F
100
AcDbEntity
  8
1
  6
Continuous
 62
     7
100
AcDbLine
 10
-47.45842906538996
 20
2.23922451609741
 30
0.0
 11
-47.45842906538996
 21
21.73922451609741
 31
0.0
  0
LINE
  5
75
330
1F
100
AcDbEntity
  8
1
  6
Continuous
 62
     7
100
AcDbLine
 10
-47.45842906538996
 20
45.23922451609739
 30
0.0
 11
-47.45842906538996
 21
47.23922451609739
 31
0.0
  0
LINE
  5
76
330
1F
100
AcDbEntity
  8
1
  6
Continuous
 62
     7
100
AcDbLine
 10
-47.45842906538996
 20
47.23922451609739
 30
0.0
 11
-46.95842906538996
 21
47.73922451609739
 31
0.0
  0
LINE
  5
77
330
1F
100
AcDbEntity
  8
1
  6
Continuous
 62
     7
100
AcDbLine
 10
-46.95842906538996
 20
47.73922451609739
 30
0.0
 11
-47.45842906538996
 21
48.23922451609739
 31
0.0
  0
LINE
  5
78
330
1F
100
AcDbEntity
  8
1
  6
Continuous
 62
     7
100
AcDbLine
 10
-47.45842906538996
 20
48.23922451609739
 30
0.0
 11
-46.95842906538996
 21
48.73922451609739
 31
0.0
  0
LINE
  5
79
330
1F
100
AcDbEntity
  8
1
  6
Continuous
 62
     7
100
AcDbLine
 10
-46.95842906538996
 20
48.73922451609739
 30
0.0
 11
-47.45842906538996
 21
49.23922451609739
 31
0.0
  0
LINE
  5
7A
330
1F
100
AcDbEntity
  8
1
  6
Continuous
 62
     7
100
AcDbLine
 10
-47.45842906538996
 20
49.23922451609739
 30
0.0
 11
-46.95842906538996
 21
49.73922451609739
 31
0.0
  0
LINE
  5
7B
330
1F
100
AcDbEntity
  8
1
  6
Continuous
 62
     7
100
AcDbLine
 10
-46.95842906538996
 20
49.73922451609739
 30
0.0
 11
-47.45842906538996
 21
50.23922451609739
 31
0.0
  0
LINE
  5
7C
330
1F
100
AcDbEntity
  8
1
  6
Continuous
 62
     7
100
AcDbLine
 10
-47.45842906538996
 20
50.23922451609739
 30
0.0
 11
-46.95842906538996
 21
50.73922451609739
 31
0.0
  0
LINE
  5
7D
330
1F
100
AcDbEntity
  8
1
  6
Continuous
 62
     7
100
AcDbLine
 10
-46.95842906538996
 20
50.73922451609739
 30
0.0
 11
-47.45842906538996
 21
51.23922451609739
 31
0.0
  0
LINE
  5
7E
330
1F
100
AcDbEntity
  8
1
  6
Continuous
 62
     7
100
AcDbLine
 10
-47.45842906538996
 20
51.23922451609739
 30
0.0
 11
-46.95842906538996
 21
51.73922451609739
 31
0.0
  0
LINE
  5
7F
330
1F
100
AcDbEntity
  8
1
  6
Continuous
 62
     7
100
AcDbLine
 10
-46.95842906538996
 20
51.73922451609739
 30
0.0
 11
-47.45842906538996
 21
52.23922451609739
 31
0.0
  0
LINE
  5
80
330
1F
100
AcDbEntity
  8
1
  6
Continuous
 62
     7
100
AcDbLine
 10
-50.45842906538996
 20
49.23922451609739
 30
0.0
 11
-50.95842906538996
 21
49.73922451609739
 31
0.0
  0
LINE
  5
81
330
1F
100
AcDbEntity
  8
1
  6
Continuous
 62
     7
100
AcDbLine
 10
-50.95842906538996
 20
49.73922451609739
 30
0.0
 11
-50.95842906538996
 21
50.73922451609739
 31
0.0
  0
LINE
  5
82
330
1F
100
AcDbEntity
  8
1
  6
Continuous
 62
     7
100
AcDbLine
 10
-50.95842906538996
 20
50.73922451609739
 30
0.0
 11
-49.95842906538996
 21
50.73922451609739
 31
0.0
  0
LINE
  5
83
330
1F
100
AcDbEntity
  8
1
  6
Continuous
 62
     7
100
AcDbLine
 10
-49.95842906538996
 20
50.73922451609739
 30
0.0
 11
-49.95842906538996
 21
51.73922451609739
 31
0.0
  0
LINE
  5
84
330
1F
100
AcDbEntity
  8
1
  6
Continuous
 62
     7
100
AcDbLine
 10
-50.95842906538996
 20
52.73922451609739
 30
0.0
 11
-49.95842906538996
 21
51.73922451609739
 31
0.0
  0
LINE
  5
85
330
1F
100
AcDbEntity
  8
1
  6
Continuous
 62
     7
100
AcDbLine
 10
-52.45842906538996
 20
52.73922451609739
 30
0.0
 11
-50.95842906538996
 21
52.73922451609739
 31
0.0
  0
LINE
  5
86
330
1F
100
AcDbEntity
  8
1
  6
Continuous
 62
     7
100
AcDbLine
 10
-50.45842906538996
 20
40.73922451609739
 30
0.0
 11
-50.95842906538996
 21
40.73922451609739
 31
0.0
  0
LINE
  5
87
330
1F
100
AcDbEntity
  8
1
  6
Continuous
 62
     7
100
AcDbLine
 10
-52.45842906538996
 20
42.23922451609739
 30
0.0
 11
-50.95842906538996
 21
40.73922451609739
 31
0.0
  0
LINE
  5
88
330
1F
100
AcDbEntity
  8
1
  6
Continuous
 62
     7
100
AcDbLine
 10
-47.45842906538996
 20
43.23922451609739
 30
0.0
 11
-50.45842906538996
 21
43.23922451609739
 31
0.0
  0
LINE
  5
89
330
1F
100
AcDbEntity
  8
1
  6
Continuous
 62
     7
100
AcDbLine
 10
-50.45842906538996
 20
43.23922451609739
 30
0.0
 11
-50.45842906538996
 21
40.73922451609739
 31
0.0
  0
LINE
  5
8A
330
1F
100
AcDbEntity
  8
1
  6
Continuous
 62
     7
100
AcDbLine
 10
-52.45842906538996
 20
42.23922451609739
 30
0.0
 11
-52.45842906538996
 21
52.73922451609739
 31
0.0
  0
LINE
  5
8B
330
1F
100
AcDbEntity
  8
1
  6
Continuous
 62
     7
100
AcDbLine
 10
-50.45842906538996
 20
49.23922451609739
 30
0.0
 11
-50.45842906538996
 21
45.23922451609739
 31
0.0
  0
LINE
  5
8C
330
1F
100
AcDbEntity
  8
1
  6
Continuous
 62
     7
100
AcDbLine
 10
-50.45842906538996
 20
45.23922451609739
 30
0.0
 11
-47.45842906538996
 21
45.23922451609739
 31
0.0
  0
LINE
  5
8D
330
1F
100
AcDbEntity
  8
1
  6
Continuous
 62
     7
100
AcDbLine
 10
-47.45842906538996
 20
52.23922451609739
 30
0.0
 11
-47.45842906538994
 21
55.23922451609741
 31
0.0
  0
LINE
  5
8E
330
1F
100
AcDbEntity
  8
1
  6
Continuous
 62
     7
100
AcDbLine
 10
-47.45842906538996
 20
-1.76077548390259
 30
0.0
 11
-47.45842906538996
 21
0.23922451609741
 31
0.0
  0
LINE
  5
8F
330
1F
100
AcDbEntity
  8
1
  6
Continuous
 62
     7
100
AcDbLine
 10
-46.95842906538996
 20
-2.26077548390259
 30
0.0
 11
-47.45842906538996
 21
-1.76077548390259
 31
0.0
  0
LINE
  5
90
330
1F
100
AcDbEntity
  8
1
  6
Continuous
 62
     7
100
AcDbLine
 10
-47.45842906538996
 20
-2.76077548390259
 30
0.0
 11
-46.95842906538996
 21
-2.26077548390259
 31
0.0
  0
LINE
  5
91
330
1F
100
AcDbEntity
  8
1
  6
Continuous
 62
     7
100
AcDbLine
 10
-46.95842906538996
 20
-3.26077548390259
 30
0.0
 11
-47.45842906538996
 21
-2.76077548390259
 31
0.0
  0
LINE
  5
92
330
1F
100
AcDbEntity
  8
1
  6
Continuous
 62
     7
100
AcDbLine
 10
-47.45842906538996
 20
-3.76077548390259
 30
0.0
 11
-46.95842906538996
 21
-3.26077548390259
 31
0.0
  0
LINE
  5
93
330
1F
100
AcDbEntity
  8
1
  6
Continuous
 62
     7
100
AcDbLine
 10
-46.95842906538996
 20
-4.26077548390259
 30
0.0
 11
-47.45842906538996
 21
-3.76077548390259
 31
0.0
  0
LINE
  5
94
330
1F
100
AcDbEntity
  8
1
  6
Continuous
 62
     7
100
AcDbLine
 10
-47.45842906538996
 20
-4.76077548390259
 30
0.0
 11
-46.95842906538996
 21
-4.26077548390259
 31
0.0
  0
LINE
  5
95
330
1F
100
AcDbEntity
  8
1
  6
Continuous
 62
     7
100
AcDbLine
 10
-46.95842906538996
 20
-5.26077548390259
 30
0.0
 11
-47.45842906538996
 21
-4.76077548390259
 31
0.0
  0
LINE
  5
96
330
1F
100
AcDbEntity
  8
1
  6
Continuous
 62
     7
100
AcDbLine
 10
-47.45842906538996
 20
-5.76077548390259
 30
0.0
 11
-46.95842906538996
 21
-5.26077548390259
 31
0.0
  0
LINE
  5
97
330
1F
100
AcDbEntity
  8
1
  6
Continuous
 62
     7
100
AcDbLine
 10
-46.95842906538996
 20
-6.26077548390259
 30
0.0
 11
-47.45842906538996
 21
-5.76077548390259
 31
0.0
  0
LINE
  5
98
330
1F
100
AcDbEntity
  8
1
  6
Continuous
 62
     7
100
AcDbLine
 10
-47.45842906538996
 20
-6.76077548390259
 30
0.0
 11
-46.95842906538996
 21
-6.26077548390259
 31
0.0
  0
LINE
  5
99
330
1F
100
AcDbEntity
  8
1
  6
Continuous
 62
     7
100
AcDbLine
 10
-50.95842906538996
 20
-4.26077548390259
 30
0.0
 11
-50.45842906538996
 21
-3.76077548390259
 31
0.0
  0
LINE
  5
9A
330
1F
100
AcDbEntity
  8
1
  6
Continuous
 62
     7
100
AcDbLine
 10
-50.95842906538996
 20
-5.26077548390259
 30
0.0
 11
-50.95842906538996
 21
-4.26077548390259
 31
0.0
  0
LINE
  5
9B
330
1F
100
AcDbEntity
  8
1
  6
Continuous
 62
     7
100
AcDbLine
 10
-49.95842906538996
 20
-5.26077548390259
 30
0.0
 11
-50.95842906538996
 21
-5.26077548390259
 31
0.0
  0
LINE
  5
9C
330
1F
100
AcDbEntity
  8
1
  6
Continuous
 62
     7
100
AcDbLine
 10
-49.95842906538996
 20
-6.26077548390259
 30
0.0
 11
-49.95842906538996
 21
-5.26077548390259
 31
0.0
  0
LINE
  5
9D
330
1F
100
AcDbEntity
  8
1
  6
Continuous
 62
     7
100
AcDbLine
 10
-49.95842906538996
 20
-6.26077548390259
 30
0.0
 11
-50.95842906538996
 21
-7.26077548390259
 31
0.0
  0
LINE
  5
9E
330
1F
100
AcDbEntity
  8
1
  6
Continuous
 62
     7
100
AcDbLine
 10
-50.95842906538996
 20
-7.26077548390259
 30
0.0
 11
-52.45842906538996
 21
-7.26077548390259
 31
0.0
  0
LINE
  5
9F
330
1F
100
AcDbEntity
  8
1
  6
Continuous
 62
     7
100
AcDbLine
 10
-50.95842906538996
 20
4.73922451609741
 30
0.0
 11
-50.45842906538996
 21
4.73922451609741
 31
0.0
  0
LINE
  5
A0
330
1F
100
AcDbEntity
  8
1
  6
Continuous
 62
     7
100
AcDbLine
 10
-50.95842906538996
 20
4.73922451609741
 30
0.0
 11
-52.45842906538996
 21
3.23922451609741
 31
0.0
  0
LINE
  5
A1
330
1F
100
AcDbEntity
  8
1
  6
Continuous
 62
     7
100
AcDbLine
 10
-50.45842906538996
 20
2.23922451609741
 30
0.0
 11
-47.45842906538996
 21
2.23922451609741
 31
0.0
  0
LINE
  5
A2
330
1F
100
AcDbEntity
  8
1
  6
Continuous
 62
     7
100
AcDbLine
 10
-50.45842906538996
 20
4.73922451609741
 30
0.0
 11
-50.45842906538996
 21
2.23922451609741
 31
0.0
  0
LINE
  5
A3
330
1F
100
AcDbEntity
  8
1
  6
Continuous
 62
     7
100
AcDbLine
 10
-52.45842906538996
 20
-7.26077548390259
 30
0.0
 11
-52.45842906538996
 21
3.23922451609741
 31
0.0
  0
LINE
  5
A4
330
1F
100
AcDbEntity
  8
1
  6
Continuous
 62
     7
100
AcDbLine
 10
-50.45842906538996
 20
0.23922451609741
 30
0.0
 11
-50.45842906538996
 21
-3.76077548390259
 31
0.0
  0
LINE
  5
A5
330
1F
100
AcDbEntity
  8
1
  6
Continuous
 62
     7
100
AcDbLine
 10
-47.45842906538996
 20
0.23922451609741
 30
0.0
 11
-50.45842906538996
 21
0.23922451609741
 31
0.0
  0
LINE
  5
A6
330
1F
100
AcDbEntity
  8
1
  6
Continuous
 62
     7
100
AcDbLine
 10
-47.45842906538996
 20
-9.76077548390259
 30
0.0
 11
-47.45842906538996
 21
-6.76077548390259
 31
0.0
  0
LINE
  5
A7
330
1F
100
AcDbEntity
  8
1
  6
Continuous
 62
     7
100
AcDbLine
 10
-44.45842906538996
 20
3.23922451609741
 30
0.0
 11
-11.45842906538997
 21
3.23922451609739
 31
0.0
  0
LINE
  5
A8
330
1F
100
AcDbEntity
  8
1
  6
Continuous
 62
     7
100
AcDbLine
 10
11.54157093461003
 20
19.73922451609739
 30
0.0
 11
11.54157093461003
 21
17.73922451609739
 31
0.0
  0
LINE
  5
A9
330
1F
100
AcDbEntity
  8
1
  6
Continuous
 62
     7
100
AcDbLine
 10
0.04157093461004
 20
20.73922451609739
 30
0.0
 11
11.54157093461003
 21
19.73922451609739
 31
0.0
  0
LINE
  5
AA
330
1F
100
AcDbEntity
  8
1
  6
Continuous
 62
     7
100
AcDbLine
 10
-8.45842906538996
 20
20.73922451609739
 30
0.0
 11
-2.95842906538996
 21
20.73922451609739
 31
0.0
  0
LINE
  5
AB
330
1F
100
AcDbEntity
  8
1
  6
Continuous
 62
     7
100
AcDbLine
 10
-11.45842906538997
 20
3.23922451609739
 30
0.0
 11
-11.45842906538997
 21
17.73922451609739
 31
0.0
  0
LINE
  5
AC
330
1F
100
AcDbEntity
  8
1
  6
Continuous
 62
     7
100
AcDbLine
 10
-8.45842906538996
 20
17.73922451609739
 30
0.0
 11
11.54157093461003
 21
17.73922451609739
 31
0.0
  0
LINE
  5
AD
330
1F
100
AcDbEntity
  8
1
  6
Continuous
 62
     7
100
AcDbLine
 10
-11.45842906538997
 20
-4.26077548390261
 30
0.0
 11
-11.45842906538997
 21
-6.76077548390259
 31
0.0
  0
LINE
  5
AE
330
1F
100
AcDbEntity
  8
1
  6
Continuous
 62
     7
100
AcDbLine
 10
-14.45842906538997
 20
-2.76077548390261
 30
0.0
 11
-11.45842906538997
 21
-4.26077548390261
 31
0.0
  0
LINE
  5
AF
330
1F
100
AcDbEntity
  8
1
  6
Continuous
 62
     7
100
AcDbLine
 10
-14.45842906538997
 20
-1.76077548390261
 30
0.0
 11
-14.45842906538997
 21
-2.76077548390261
 31
0.0
  0
LINE
  5
B0
330
1F
100
AcDbEntity
  8
1
  6
Continuous
 62
     7
100
AcDbLine
 10
-11.45842906538997
 20
-1.76077548390261
 30
0.0
 11
-14.45842906538997
 21
-1.76077548390261
 31
0.0
  0
LINE
  5
B1
330
1F
100
AcDbEntity
  8
1
  6
Continuous
 62
     7
100
AcDbLine
 10
-12.95842906538997
 20
1.73922451609739
 30
0.0
 11
-11.45842906538997
 21
1.73922451609739
 31
0.0
  0
LINE
  5
B2
330
1F
100
AcDbEntity
  8
1
  6
Continuous
 62
     7
100
AcDbLine
 10
-12.95842906538997
 20
0.23922451609739
 30
0.0
 11
-12.95842906538997
 21
1.73922451609739
 31
0.0
  0
LINE
  5
B3
330
1F
100
AcDbEntity
  8
1
  6
Continuous
 62
     7
100
AcDbLine
 10
-14.45842906538997
 20
0.23922451609739
 30
0.0
 11
-12.95842906538997
 21
0.23922451609739
 31
0.0
  0
LINE
  5
B4
330
1F
100
AcDbEntity
  8
1
  6
Continuous
 62
     7
100
AcDbLine
 10
-14.45842906538997
 20
1.73922451609739
 30
0.0
 11
-14.45842906538997
 21
0.23922451609739
 31
0.0
  0
LINE
  5
B5
330
1F
100
AcDbEntity
  8
1
  6
Continuous
 62
     7
100
AcDbLine
 10
-11.45842906538997
 20
1.73922451609739
 30
0.0
 11
-11.45842906538997
 21
-1.76077548390261
 31
0.0
  0
LINE
  5
B6
330
1F
100
AcDbEntity
  8
1
  6
Continuous
 62
     7
100
AcDbLine
 10
-44.45842906538996
 20
1.73922451609741
 30
0.0
 11
-14.45842906538997
 21
1.73922451609739
 31
0.0
  0
LINE
  5
B7
330
1F
100
AcDbEntity
  8
1
  6
Continuous
 62
     7
100
AcDbLine
 10
-44.45842906538996
 20
-6.76077548390259
 30
0.0
 11
-44.45842906538996
 21
1.73922451609741
 31
0.0
  0
LINE
  5
B8
330
1F
100
AcDbEntity
  8
1
  6
Continuous
 62
     7
100
AcDbLine
 10
-44.45842906538996
 20
-6.76077548390259
 30
0.0
 11
-11.45842906538997
 21
-6.76077548390259
 31
0.0
  0
LINE
  5
B9
330
1F
100
AcDbEntity
  8
1
  6
Continuous
 62
     7
100
AcDbLine
 10
-8.45842906538996
 20
17.73922451609739
 30
0.0
 11
-8.45842906538997
 21
-7.76077548390261
 31
0.0
  0
LINE
  5
BA
330
1F
100
AcDbEntity
  8
1
  6
Continuous
 62
     7
100
AcDbLine
 10
-5.45842906538997
 20
-7.76077548390261
 30
0.0
 11
-8.45842906538997
 21
-7.76077548390261
 31
0.0
  0
LINE
  5
BB
330
1F
100
AcDbEntity
  8
1
  6
Continuous
 62
     7
100
AcDbLine
 10
-5.45842906538997
 20
-6.26077548390261
 30
0.0
 11
-5.45842906538997
 21
-7.76077548390261
 31
0.0
  0
LINE
  5
BC
330
1F
100
AcDbEntity
  8
1
  6
Continuous
 62
     7
100
AcDbLine
 10
-3.45842906538997
 20
-6.26077548390261
 30
0.0
 11
-5.45842906538997
 21
-6.26077548390261
 31
0.0
  0
LINE
  5
BD
330
1F
100
AcDbEntity
  8
1
  6
Continuous
 62
     7
100
AcDbLine
 10
-3.45842906538997
 20
-9.76077548390261
 30
0.0
 11
-3.45842906538997
 21
-6.26077548390261
 31
0.0
  0
LINE
  5
BE
330
1F
100
AcDbEntity
  8
1
  6
Continuous
 62
     7
100
AcDbLine
 10
49.54157093461004
 20
20.23922451609738
 30
0.0
 11
51.54157093461004
 21
18.23922451609738
 31
0.0
  0
LINE
  5
BF
330
1F
100
AcDbEntity
  8
1
  6
Continuous
 62
     7
100
AcDbLine
 10
49.54157093461004
 20
19.23922451609738
 30
0.0
 11
49.54157093461004
 21
20.23922451609738
 31
0.0
  0
LINE
  5
C0
330
1F
100
AcDbEntity
  8
1
  6
Continuous
 62
     7
100
AcDbLine
 10
46.54157093461004
 20
19.23922451609738
 30
0.0
 11
49.54157093461004
 21
19.23922451609738
 31
0.0
  0
LINE
  5
C1
330
1F
100
AcDbEntity
  8
1
  6
Continuous
 62
     7
100
AcDbLine
 10
66.73318287186642
 20
42.73922451609739
 30
0.0
 11
69.72656249270415
 21
42.73922451609739
 31
0.0
  0
LINE
  5
C2
330
1F
100
AcDbEntity
  8
1
  6
Continuous
 62
     7
100
AcDbLine
 10
66.73318287186642
 20
44.23922451609739
 30
0.0
 11
66.73318287186642
 21
42.73922451609739
 31
0.0
  0
LINE
  5
C3
330
1F
100
AcDbEntity
  8
1
  6
Continuous
 62
     7
100
AcDbLine
 10
67.73318287186642
 20
44.23922451609739
 30
0.0
 11
66.73318287186642
 21
44.23922451609739
 31
0.0
  0
LINE
  5
C4
330
1F
100
AcDbEntity
  8
1
  6
Continuous
 62
     7
100
AcDbLine
 10
66.86853958227222
 20
47.23922451609738
 30
0.0
 11
67.73318287186642
 21
44.23922451609739
 31
0.0
  0
LINE
  5
C5
330
1F
100
AcDbEntity
  8
1
  6
Continuous
 62
     7
100
AcDbLine
 10
62.50757250243321
 20
47.23922451609738
 30
0.0
 11
66.86853958227222
 21
47.23922451609738
 31
0.0
  0
LINE
  5
C6
330
1F
100
AcDbEntity
  8
1
  6
Continuous
 62
     7
100
AcDbLine
 10
61.97859156030781
 20
44.23922451609739
 30
0.0
 11
62.50757250243321
 21
47.23922451609738
 31
0.0
  0
LINE
  5
C7
330
1F
100
AcDbEntity
  8
1
  6
Continuous
 62
     7
100
AcDbLine
 10
62.97859156030781
 20
44.23922451609739
 30
0.0
 11
61.97859156030781
 21
44.23922451609739
 31
0.0
  0
LINE
  5
C8
330
1F
100
AcDbEntity
  8
1
  6
Continuous
 62
     7
100
AcDbLine
 10
62.97859156030781
 20
42.73922451609739
 30
0.0
 11
62.97859156030781
 21
44.23922451609739
 31
0.0
  0
LINE
  5
C9
330
1F
100
AcDbEntity
  8
1
  6
Continuous
 62
     7
100
AcDbLine
 10
48.54157093461004
 20
42.73922451609739
 30
0.0
 11
62.97859156030781
 21
42.73922451609739
 31
0.0
  0
LINE
  5
CA
330
1F
100
AcDbEntity
  8
1
  6
Continuous
 62
     7
100
AcDbLine
 10
70.07090583615329
 20
41.54447745360387
 30
0.0
 11
69.72656249270415
 21
42.73922451609739
 31
0.0
  0
LINE
  5
CB
330
1F
100
AcDbEntity
  8
1
  6
Continuous
 62
     7
100
AcDbLine
 10
66.43621793747512
 20
48.73922451609738
 30
0.0
 11
65.42746743294855
 21
52.23922451609738
 31
0.0
  0
LINE
  5
CC
330
1F
100
AcDbEntity
  8
1
  6
Continuous
 62
     7
100
AcDbLine
 10
62.08802268684457
 20
48.73922451609738
 30
0.0
 11
66.43621793747512
 21
48.73922451609738
 31
0.0
  0
LINE
  5
CD
330
1F
100
AcDbEntity
  8
1
  6
Continuous
 62
     7
100
AcDbLine
 10
60.7199421135419
 20
45.73922451609739
 30
0.0
 11
61.10321493383236
 21
47.91287269376431
 31
0.0
  0
LINE
  5
CE
330
1F
100
AcDbEntity
  8
1
  6
Continuous
 62
     7
100
AcDbLine
 10
50.04157093461004
 20
45.73922451609739
 30
0.0
 11
60.7199421135419
 21
45.73922451609739
 31
0.0
  0
LINE
  5
CF
330
1F
100
AcDbEntity
  8
1
  6
Continuous
 62
     7
100
AcDbLine
 10
46.54157093461004
 20
42.73922451609739
 30
0.0
 11
46.54157093461004
 21
19.23922451609738
 31
0.0
  0
LINE
  5
D0
330
1F
100
AcDbEntity
  8
1
  6
Continuous
 62
     7
100
AcDbLine
 10
43.54157093461004
 20
42.84741242899901
 30
0.0
 11
43.54157093461004
 21
39.23922451609739
 31
0.0
  0
LINE
  5
D1
330
1F
100
AcDbEntity
  8
1
  6
Continuous
 62
     7
100
AcDbLine
 10
51.54157093461004
 20
-1.26077548390262
 30
0.0
 11
51.54157093461004
 21
18.23922451609738
 31
0.0
  0
LINE
  5
D2
330
1F
100
AcDbEntity
  8
1
  6
Continuous
 62
     7
100
AcDbLine
 10
50.04157093461004
 20
-2.76077548390262
 30
0.0
 11
51.54157093461004
 21
-1.26077548390262
 31
0.0
  0
LINE
  5
D3
330
1F
100
AcDbEntity
  8
1
  6
Continuous
 62
     7
100
AcDbLine
 10
49.54157093461004
 20
-2.76077548390262
 30
0.0
 11
50.04157093461004
 21
-2.76077548390262
 31
0.0
  0
LINE
  5
D4
330
1F
100
AcDbEntity
  8
1
  6
Continuous
 62
     7
100
AcDbLine
 10
49.54157093461004
 20
1.23922451609738
 30
0.0
 11
49.54157093461004
 21
-2.76077548390262
 31
0.0
  0
LINE
  5
D5
330
1F
100
AcDbEntity
  8
1
  6
Continuous
 62
     7
100
AcDbLine
 10
46.54157093461004
 20
1.23922451609738
 30
0.0
 11
49.54157093461004
 21
1.23922451609738
 31
0.0
  0
LINE
  5
D6
330
1F
100
AcDbEntity
  8
1
  6
Continuous
 62
     7
100
AcDbLine
 10
46.54157093461004
 20
-23.76077548390262
 30
0.0
 11
46.54157093461004
 21
1.23922451609738
 31
0.0
  0
LINE
  5
D7
330
1F
100
AcDbEntity
  8
1
  6
Continuous
 62
     7
100
AcDbLine
 10
49.54157093461004
 20
-23.76077548390262
 30
0.0
 11
46.54157093461004
 21
-23.76077548390262
 31
0.0
  0
LINE
  5
D8
330
1F
100
AcDbEntity
  8
1
  6
Continuous
 62
     7
100
AcDbLine
 10
49.54157093461004
 20
-22.26077548390261
 30
0.0
 11
49.54157093461004
 21
-23.76077548390262
 31
0.0
  0
LINE
  5
D9
330
1F
100
AcDbEntity
  8
1
  6
Continuous
 62
     7
100
AcDbLine
 10
51.54157093461004
 20
-22.26077548390261
 30
0.0
 11
49.54157093461004
 21
-22.26077548390261
 31
0.0
  0
LINE
  5
DA
330
1F
100
AcDbEntity
  8
1
  6
Continuous
 62
     7
100
AcDbLine
 10
51.54157093461004
 20
-25.76077548390262
 30
0.0
 11
51.54157093461004
 21
-22.26077548390261
 31
0.0
  0
LINE
  5
DB
330
1F
100
AcDbEntity
  8
1
  6
Continuous
 62
     7
100
AcDbLine
 10
43.54157093461004
 20
19.23922451609738
 30
0.0
 11
43.54157093461004
 21
27.7392245160974
 31
0.0
  0
LINE
  5
DC
330
1F
100
AcDbEntity
  8
1
  6
Continuous
 62
     7
100
AcDbLine
 10
48.54157093461004
 20
16.23922451609738
 30
0.0
 11
46.54157093461004
 21
16.23922451609738
 31
0.0
  0
LINE
  5
DD
330
1F
100
AcDbEntity
  8
1
  6
Continuous
 62
     7
100
AcDbLine
 10
48.54157093461004
 20
4.23922451609738
 30
0.0
 11
48.54157093461004
 21
16.23922451609738
 31
0.0
  0
LINE
  5
DE
330
1F
100
AcDbEntity
  8
1
  6
Continuous
 62
     7
100
AcDbLine
 10
46.54157093461004
 20
4.23922451609738
 30
0.0
 11
48.54157093461004
 21
4.23922451609738
 31
0.0
  0
LINE
  5
DF
330
1F
100
AcDbEntity
  8
1
  6
Continuous
 62
     7
100
AcDbLine
 10
43.54157093461004
 20
-22.76077548390261
 30
0.0
 11
43.54157093461004
 21
1.23922451609738
 31
0.0
  0
LINE
  5
E0
330
1F
100
AcDbEntity
  8
1
  6
Continuous
 62
     7
100
AcDbLine
 10
32.54157093461004
 20
-22.76077548390261
 30
0.0
 11
43.54157093461004
 21
-22.76077548390261
 31
0.0
  0
LINE
  5
E1
330
1F
100
AcDbEntity
  8
1
  6
Continuous
 62
     7
100
AcDbLine
 10
32.54157093461004
 20
-18.76077548390261
 30
0.0
 11
32.54157093461004
 21
-22.76077548390261
 31
0.0
  0
LINE
  5
E2
330
1F
100
AcDbEntity
  8
1
  6
Continuous
 62
     7
100
AcDbLine
 10
31.04157093461004
 20
-18.76077548390261
 30
0.0
 11
32.54157093461004
 21
-18.76077548390261
 31
0.0
  0
LINE
  5
E3
330
1F
100
AcDbEntity
  8
1
  6
Continuous
 62
     7
100
AcDbLine
 10
31.04157093461004
 20
-22.76077548390261
 30
0.0
 11
31.04157093461004
 21
-18.76077548390261
 31
0.0
  0
LINE
  5
E4
330
1F
100
AcDbEntity
  8
1
  6
Continuous
 62
     7
100
AcDbLine
 10
10.54157093461003
 20
-22.76077548390261
 30
0.0
 11
31.04157093461004
 21
-22.76077548390261
 31
0.0
  0
LINE
  5
E5
330
1F
100
AcDbEntity
  8
1
  6
Continuous
 62
     7
100
AcDbLine
 10
37.9011939975827
 20
52.23922451609738
 30
0.0
 11
65.42746743294855
 21
52.23922451609738
 31
0.0
  0
LINE
  5
E6
330
1F
100
AcDbEntity
  8
1
  6
Continuous
 62
     7
100
AcDbLine
 10
34.74967884606755
 20
39.23922451609739
 30
0.0
 11
37.9011939975827
 21
52.23922451609738
 31
0.0
  0
LINE
  5
E7
330
1F
100
AcDbEntity
  8
1
  6
Continuous
 62
     7
100
AcDbLine
 10
43.54157093461004
 20
39.23922451609739
 30
0.0
 11
34.74967884606755
 21
39.23922451609739
 31
0.0
  0
LINE
  5
E8
330
1F
100
AcDbEntity
  8
1
  6
Continuous
 62
     7
100
AcDbLine
 10
32.32811195560093
 20
35.73922451609739
 30
0.0
 11
24.54157093461004
 21
35.73922451609739
 31
0.0
  0
LINE
  5
E9
330
1F
100
AcDbEntity
  8
1
  6
Continuous
 62
     7
100
AcDbLine
 10
34.38604248243119
 20
37.73922451609739
 30
0.0
 11
34.27181216697834
 21
37.26802446485439
 31
0.0
  0
LINE
  5
EA
330
1F
100
AcDbEntity
  8
1
  6
Continuous
 62
     7
100
AcDbLine
 10
43.54157093461004
 20
37.73922451609739
 30
0.0
 11
34.38604248243119
 21
37.73922451609739
 31
0.0
  0
LINE
  5
EB
330
1F
100
AcDbEntity
  8
1
  6
Continuous
 62
     7
100
AcDbLine
 10
43.54157093461004
 20
29.2392245160974
 30
0.0
 11
43.54157093461004
 21
37.73922451609739
 31
0.0
  0
LINE
  5
EC
330
1F
100
AcDbEntity
  8
1
  6
Continuous
 62
     7
100
AcDbLine
 10
67.90525119823971
 20
54.47482454171888
 30
0.0
 11
71.51223603306677
 21
41.95988961455412
 31
0.0
  0
LINE
  5
ED
330
1F
100
AcDbEntity
  8
1
  6
Continuous
 62
     7
100
AcDbLine
 10
36.32811195560092
 20
55.23922451609739
 30
0.0
 11
66.93340109255101
 21
55.23922451609738
 31
0.0
  0
LINE
  5
EE
330
1F
100
AcDbEntity
  8
1
  6
Continuous
 62
     7
100
AcDbLine
 10
31.72688001930786
 20
39.50362449047589
 30
0.0
 11
35.35626184991222
 21
54.47482454171889
 31
0.0
  0
LINE
  5
EF
330
1F
100
AcDbEntity
  8
1
  6
Continuous
 62
     7
100
AcDbLine
 10
24.54157093461004
 20
29.2392245160974
 30
0.0
 11
43.54157093461004
 21
29.2392245160974
 31
0.0
  0
LINE
  5
F0
330
1F
100
AcDbEntity
  8
1
  6
Continuous
 62
     7
100
AcDbLine
 10
24.54157093461004
 20
35.73922451609739
 30
0.0
 11
24.54157093461004
 21
29.2392245160974
 31
0.0
  0
LINE
  5
F1
330
1F
100
AcDbEntity
  8
1
  6
Continuous
 62
     7
100
AcDbLine
 10
16.54157093461004
 20
38.73922451609739
 30
0.0
 11
30.75502991361915
 21
38.73922451609739
 31
0.0
  0
LINE
  5
F2
330
1F
100
AcDbEntity
  8
1
  6
Continuous
 62
     7
100
AcDbLine
 10
21.54157093461004
 20
35.73922451609739
 30
0.0
 11
19.54157093461004
 21
35.73922451609739
 31
0.0
  0
LINE
  5
F3
330
1F
100
AcDbEntity
  8
1
  6
Continuous
 62
     7
100
AcDbLine
 10
22.54157093461004
 20
15.23922451609739
 30
0.0
 11
22.54157093461004
 21
14.18260018907146
 31
0.0
  0
LINE
  5
F4
330
1F
100
AcDbEntity
  8
1
  6
Continuous
 62
     7
100
AcDbLine
 10
22.54157093461004
 20
27.7392245160974
 30
0.0
 11
43.54157093461004
 21
27.7392245160974
 31
0.0
  0
LINE
  5
F5
330
1F
100
AcDbEntity
  8
1
  6
Continuous
 62
     7
100
AcDbLine
 10
22.54157093461004
 20
15.23922451609739
 30
0.0
 11
22.54157093461004
 21
27.7392245160974
 31
0.0
  0
LINE
  5
F6
330
1F
100
AcDbEntity
  8
1
  6
Continuous
 62
     7
100
AcDbLine
 10
21.54157093461004
 20
12.73922451609739
 30
0.0
 11
21.79157093461004
 21
12.8835620833948
 31
0.0
  0
LINE
  5
F7
330
1F
100
AcDbEntity
  8
1
  6
Continuous
 62
     7
100
AcDbLine
 10
21.54157093461004
 20
9.81657478528702
 30
0.0
 11
21.54157093461004
 21
12.73922451609739
 31
0.0
  0
LINE
  5
F8
330
1F
100
AcDbEntity
  8
1
  6
Continuous
 62
     7
100
AcDbLine
 10
21.79157093461004
 20
9.6722372179896
 30
0.0
 11
21.54157093461004
 21
9.81657478528702
 31
0.0
  0
LINE
  5
F9
330
1F
100
AcDbEntity
  8
1
  6
Continuous
 62
     7
100
AcDbLine
 10
22.54157093461004
 20
2.73922451609739
 30
0.0
 11
22.54157093461004
 21
8.37319911231295
 31
0.0
  0
LINE
  5
FA
330
1F
100
AcDbEntity
  8
1
  6
Continuous
 62
     7
100
AcDbLine
 10
21.54157093461004
 20
35.73922451609739
 30
0.0
 11
21.54157093461004
 21
30.2392245160974
 31
0.0
  0
LINE
  5
FB
330
1F
100
AcDbEntity
  8
1
  6
Continuous
 62
     7
100
AcDbLine
 10
19.54157093461004
 20
30.2392245160974
 30
0.0
 11
21.54157093461004
 21
30.2392245160974
 31
0.0
  0
LINE
  5
FC
330
1F
100
AcDbEntity
  8
1
  6
Continuous
 62
     7
100
AcDbLine
 10
19.54157093461004
 20
30.2392245160974
 30
0.0
 11
19.54157093461004
 21
14.23922451609739
 31
0.0
  0
LINE
  5
FD
330
1F
100
AcDbEntity
  8
1
  6
Continuous
 62
     7
100
AcDbLine
 10
11.04157093461003
 20
6.73922451609739
 30
0.0
 11
11.04157093461003
 21
4.73922451609739
 31
0.0
  0
LINE
  5
FE
330
1F
100
AcDbEntity
  8
1
  6
Continuous
 62
     7
100
AcDbLine
 10
16.29157093461004
 20
14.23922451609739
 30
0.0
 11
19.54157093461004
 21
14.23922451609739
 31
0.0
  0
LINE
  5
FF
330
1F
100
AcDbEntity
  8
1
  6
Continuous
 62
     7
100
AcDbLine
 10
16.29157093461004
 20
12.73922451609739
 30
0.0
 11
16.29157093461004
 21
14.23922451609739
 31
0.0
  0
LINE
  5
100
330
1F
100
AcDbEntity
  8
1
  6
Continuous
 62
     7
100
AcDbLine
 10
18.54157093461004
 20
12.73922451609739
 30
0.0
 11
16.29157093461004
 21
12.73922451609739
 31
0.0
  0
LINE
  5
101
330
1F
100
AcDbEntity
  8
1
  6
Continuous
 62
     7
100
AcDbLine
 10
18.54157093461004
 20
9.23922451609739
 30
0.0
 11
18.54157093461004
 21
12.73922451609739
 31
0.0
  0
LINE
  5
102
330
1F
100
AcDbEntity
  8
1
  6
Continuous
 62
     7
100
AcDbLine
 10
11.04157093461003
 20
9.23922451609739
 30
0.0
 11
18.54157093461004
 21
9.23922451609739
 31
0.0
  0
LINE
  5
103
330
1F
100
AcDbEntity
  8
1
  6
Continuous
 62
     7
100
AcDbLine
 10
11.04157093461003
 20
12.73922451609739
 30
0.0
 11
11.04157093461003
 21
9.23922451609739
 31
0.0
  0
LINE
  5
104
330
1F
100
AcDbEntity
  8
1
  6
Continuous
 62
     7
100
AcDbLine
 10
13.29157093461003
 20
12.73922451609739
 30
0.0
 11
11.04157093461003
 21
12.73922451609739
 31
0.0
  0
LINE
  5
105
330
1F
100
AcDbEntity
  8
1
  6
Continuous
 62
     7
100
AcDbLine
 10
13.29157093461003
 20
14.23922451609739
 30
0.0
 11
13.29157093461003
 21
12.73922451609739
 31
0.0
  0
LINE
  5
106
330
1F
100
AcDbEntity
  8
1
  6
Continuous
 62
     7
100
AcDbLine
 10
8.54157093461003
 20
14.23922451609739
 30
0.0
 11
13.29157093461003
 21
14.23922451609739
 31
0.0
  0
LINE
  5
107
330
1F
100
AcDbEntity
  8
1
  6
Continuous
 62
     7
100
AcDbLine
 10
8.54157093461003
 20
6.73922451609739
 30
0.0
 11
8.54157093461003
 21
14.23922451609739
 31
0.0
  0
LINE
  5
108
330
1F
100
AcDbEntity
  8
1
  6
Continuous
 62
     7
100
AcDbLine
 10
25.14039934557271
 20
-1.26077548390261
 30
0.0
 11
22.54157093461004
 21
-3.33983821267275
 31
0.0
  0
LINE
  5
109
330
1F
100
AcDbEntity
  8
1
  6
Continuous
 62
     7
100
AcDbLine
 10
22.54157093461004
 20
0.81828724486753
 30
0.0
 11
25.14039934557271
 21
-1.26077548390261
 31
0.0
  0
LINE
  5
10A
330
1F
100
AcDbEntity
  8
1
  6
Continuous
 62
     7
100
AcDbLine
 10
22.54157093461004
 20
-3.33983821267275
 30
0.0
 11
22.54157093461004
 21
0.81828724486753
 31
0.0
  0
LINE
  5
10B
330
1F
100
AcDbEntity
  8
1
  6
Continuous
 62
     7
100
AcDbLine
 10
26.07744191690436
 20
-0.08947226973806
 30
0.0
 11
22.54157093461004
 21
2.73922451609739
 31
0.0
  0
LINE
  5
10C
330
1F
100
AcDbEntity
  8
1
  6
Continuous
 62
     7
100
AcDbLine
 10
22.54157093461004
 20
-5.26077548390261
 30
0.0
 11
26.07744191690436
 21
-2.43207869806715
 31
0.0
  0
LINE
  5
10D
330
1F
100
AcDbEntity
  8
1
  6
Continuous
 62
     7
100
AcDbLine
 10
22.54157093461004
 20
-9.26077548390261
 30
0.0
 11
22.54157093461004
 21
-5.26077548390261
 31
0.0
  0
LINE
  5
10E
330
1F
100
AcDbEntity
  8
1
  6
Continuous
 62
     7
100
AcDbLine
 10
10.54157093461003
 20
-16.26077548390261
 30
0.0
 11
10.54157093461003
 21
-22.76077548390261
 31
0.0
  0
LINE
  5
10F
330
1F
100
AcDbEntity
  8
1
  6
Continuous
 62
     7
100
AcDbLine
 10
11.04157093461003
 20
-12.26077548390261
 30
0.0
 11
10.54157093461003
 21
-16.26077548390261
 31
0.0
  0
LINE
  5
110
330
1F
100
AcDbEntity
  8
1
  6
Continuous
 62
     7
100
AcDbLine
 10
19.54157093461004
 20
-12.26077548390261
 30
0.0
 11
11.04157093461003
 21
-12.26077548390261
 31
0.0
  0
LINE
  5
111
330
1F
100
AcDbEntity
  8
1
  6
Continuous
 62
     7
100
AcDbLine
 10
11.04157093461003
 20
6.73922451609739
 30
0.0
 11
8.54157093461003
 21
6.73922451609739
 31
0.0
  0
LINE
  5
112
330
1F
100
AcDbEntity
  8
1
  6
Continuous
 62
     7
100
AcDbLine
 10
14.54157093461003
 20
4.73922451609739
 30
0.0
 11
11.04157093461003
 21
4.73922451609739
 31
0.0
  0
LINE
  5
113
330
1F
100
AcDbEntity
  8
1
  6
Continuous
 62
     7
100
AcDbLine
 10
14.54157093461003
 20
6.73922451609739
 30
0.0
 11
14.54157093461003
 21
4.73922451609739
 31
0.0
  0
LINE
  5
114
330
1F
100
AcDbEntity
  8
1
  6
Continuous
 62
     7
100
AcDbLine
 10
19.54157093461004
 20
6.73922451609739
 30
0.0
 11
14.54157093461003
 21
6.73922451609739
 31
0.0
  0
LINE
  5
115
330
1F
100
AcDbEntity
  8
1
  6
Continuous
 62
     7
100
AcDbLine
 10
19.54157093461004
 20
-9.26077548390261
 30
0.0
 11
19.54157093461004
 21
6.73922451609739
 31
0.0
  0
LINE
  5
116
330
1F
100
AcDbEntity
  8
1
  6
Continuous
 62
     7
100
AcDbLine
 10
14.54157093461003
 20
-9.26077548390261
 30
0.0
 11
19.54157093461004
 21
-9.26077548390261
 31
0.0
  0
LINE
  5
117
330
1F
100
AcDbEntity
  8
1
  6
Continuous
 62
     7
100
AcDbLine
 10
14.54157093461003
 20
-7.26077548390261
 30
0.0
 11
14.54157093461003
 21
-9.26077548390261
 31
0.0
  0
LINE
  5
118
330
1F
100
AcDbEntity
  8
1
  6
Continuous
 62
     7
100
AcDbLine
 10
11.04157093461003
 20
-7.26077548390261
 30
0.0
 11
14.54157093461003
 21
-7.26077548390261
 31
0.0
  0
LINE
  5
119
330
1F
100
AcDbEntity
  8
1
  6
Continuous
 62
     7
100
AcDbLine
 10
11.04157093461003
 20
-9.26077548390261
 30
0.0
 11
11.04157093461003
 21
-7.26077548390261
 31
0.0
  0
LINE
  5
11A
330
1F
100
AcDbEntity
  8
1
  6
Continuous
 62
     7
100
AcDbLine
 10
8.54157093461003
 20
-9.26077548390261
 30
0.0
 11
11.04157093461003
 21
-9.26077548390261
 31
0.0
  0
LINE
  5
11B
330
1F
100
AcDbEntity
  8
1
  6
Continuous
 62
     7
100
AcDbLine
 10
8.54157093461003
 20
-13.26077548390261
 30
0.0
 11
8.54157093461003
 21
-9.26077548390261
 31
0.0
  0
LINE
  5
11C
330
1F
100
AcDbEntity
  8
1
  6
Continuous
 62
     7
100
AcDbLine
 10
-11.45842906538997
 20
-25.76077548390261
 30
0.0
 11
51.54157093461004
 21
-25.76077548390262
 31
0.0
  0
LINE
  5
11D
330
1F
100
AcDbEntity
  8
1
  6
Continuous
 62
     7
100
AcDbLine
 10
-1.2448347032721
 20
-18.86340888780158
 30
0.0
 11
-0.37729023530577
 21
-16.26077548390261
 31
0.0
  0
LINE
  5
11E
330
1F
100
AcDbEntity
  8
1
  6
Continuous
 62
     7
100
AcDbLine
 10
-1.95842906538997
 20
-19.26077548390261
 30
0.0
 11
-1.79615140522159
 21
-19.26077548390261
 31
0.0
  0
LINE
  5
11F
330
1F
100
AcDbEntity
  8
1
  6
Continuous
 62
     7
100
AcDbLine
 10
-1.95842906538997
 20
-22.26077548390261
 30
0.0
 11
-1.95842906538997
 21
-19.26077548390261
 31
0.0
  0
LINE
  5
120
330
1F
100
AcDbEntity
  8
1
  6
Continuous
 62
     7
100
AcDbLine
 10
1.54157093461003
 20
-22.76077548390261
 30
0.0
 11
-1.45842906538997
 21
-22.76077548390261
 31
0.0
  0
LINE
  5
121
330
1F
100
AcDbEntity
  8
1
  6
Continuous
 62
     7
100
AcDbLine
 10
2.04157093461003
 20
-16.26077548390261
 30
0.0
 11
2.04157093461003
 21
-22.26077548390261
 31
0.0
  0
LINE
  5
122
330
1F
100
AcDbEntity
  8
1
  6
Continuous
 62
     7
100
AcDbLine
 10
-0.37729023530577
 20
-16.26077548390261
 30
0.0
 11
2.04157093461003
 21
-16.26077548390261
 31
0.0
  0
LINE
  5
123
330
1F
100
AcDbEntity
  8
1
  6
Continuous
 62
     7
100
AcDbLine
 10
-3.45842906538997
 20
-13.26077548390261
 30
0.0
 11
8.54157093461003
 21
-13.26077548390261
 31
0.0
  0
LINE
  5
124
330
1F
100
AcDbEntity
  8
1
  6
Continuous
 62
     7
100
AcDbLine
 10
-3.45842906538997
 20
-14.76077548390261
 30
0.0
 11
-3.45842906538997
 21
-13.26077548390261
 31
0.0
  0
LINE
  5
125
330
1F
100
AcDbEntity
  8
1
  6
Continuous
 62
     7
100
AcDbLine
 10
-1.45842906538997
 20
-14.76077548390261
 30
0.0
 11
-3.45842906538997
 21
-14.76077548390261
 31
0.0
  0
LINE
  5
126
330
1F
100
AcDbEntity
  8
1
  6
Continuous
 62
     7
100
AcDbLine
 10
-2.32597353335629
 20
-17.36340888780158
 30
0.0
 11
-1.45842906538997
 21
-14.76077548390261
 31
0.0
  0
LINE
  5
127
330
1F
100
AcDbEntity
  8
1
  6
Continuous
 62
     7
100
AcDbLine
 10
-8.45842906538997
 20
-17.76077548390261
 30
0.0
 11
-2.87729023530578
 21
-17.76077548390261
 31
0.0
  0
LINE
  5
128
330
1F
100
AcDbEntity
  8
1
  6
Continuous
 62
     7
100
AcDbLine
 10
-8.45842906538997
 20
-14.76077548390261
 30
0.0
 11
-8.45842906538997
 21
-17.76077548390261
 31
0.0
  0
LINE
  5
129
330
1F
100
AcDbEntity
  8
1
  6
Continuous
 62
     7
100
AcDbLine
 10
-6.45842906538997
 20
-14.76077548390261
 30
0.0
 11
-8.45842906538997
 21
-14.76077548390261
 31
0.0
  0
LINE
  5
12A
330
1F
100
AcDbEntity
  8
1
  6
Continuous
 62
     7
100
AcDbLine
 10
-6.45842906538997
 20
-13.26077548390261
 30
0.0
 11
-6.45842906538997
 21
-14.76077548390261
 31
0.0
  0
LINE
  5
12B
330
1F
100
AcDbEntity
  8
1
  6
Continuous
 62
     7
100
AcDbLine
 10
-9.95842906538997
 20
-13.26077548390261
 30
0.0
 11
-6.45842906538997
 21
-13.26077548390261
 31
0.0
  0
LINE
  5
12C
330
1F
100
AcDbEntity
  8
1
  6
Continuous
 62
     7
100
AcDbLine
 10
3.54157093461003
 20
-16.26077548390261
 30
0.0
 11
3.54157093461003
 21
-22.26077548390261
 31
0.0
  0
LINE
  5
12D
330
1F
100
AcDbEntity
  8
1
  6
Continuous
 62
     7
100
AcDbLine
 10
8.54157093461003
 20
-16.26077548390261
 30
0.0
 11
3.54157093461003
 21
-16.26077548390261
 31
0.0
  0
LINE
  5
12E
330
1F
100
AcDbEntity
  8
1
  6
Continuous
 62
     7
100
AcDbLine
 10
8.54157093461003
 20
-22.26077548390261
 30
0.0
 11
8.54157093461003
 21
-16.26077548390261
 31
0.0
  0
LINE
  5
12F
330
1F
100
AcDbEntity
  8
1
  6
Continuous
 62
     7
100
AcDbLine
 10
4.04157093461003
 20
-22.76077548390261
 30
0.0
 11
8.04157093461003
 21
-22.76077548390261
 31
0.0
  0
LINE
  5
130
330
1F
100
AcDbEntity
  8
1
  6
Continuous
 62
     7
100
AcDbLine
 10
-8.45842906538997
 20
-19.26077548390261
 30
0.0
 11
-8.45842906538997
 21
-22.26077548390261
 31
0.0
  0
LINE
  5
131
330
1F
100
AcDbEntity
  8
1
  6
Continuous
 62
     7
100
AcDbLine
 10
-3.45842906538997
 20
-19.26077548390261
 30
0.0
 11
-8.45842906538997
 21
-19.26077548390261
 31
0.0
  0
LINE
  5
132
330
1F
100
AcDbEntity
  8
1
  6
Continuous
 62
     7
100
AcDbLine
 10
-3.45842906538997
 20
-22.26077548390261
 30
0.0
 11
-3.45842906538997
 21
-19.26077548390261
 31
0.0
  0
LINE
  5
133
330
1F
100
AcDbEntity
  8
1
  6
Continuous
 62
     7
100
AcDbLine
 10
-7.95842906538997
 20
-22.76077548390261
 30
0.0
 11
-3.95842906538997
 21
-22.76077548390261
 31
0.0
  0
LINE
  5
134
330
1F
100
AcDbEntity
  8
1
  6
Continuous
 62
     7
100
AcDbLine
 10
-9.95842906538997
 20
-11.76077548390261
 30
0.0
 11
-9.95842906538997
 21
-13.26077548390261
 31
0.0
  0
LINE
  5
135
330
1F
100
AcDbEntity
  8
1
  6
Continuous
 62
     7
100
AcDbLine
 10
-11.45842906538997
 20
-11.76077548390261
 30
0.0
 11
-9.95842906538997
 21
-11.76077548390261
 31
0.0
  0
LINE
  5
136
330
1F
100
AcDbEntity
  8
1
  6
Continuous
 62
     7
100
AcDbLine
 10
-47.45842906538996
 20
-9.76077548390259
 30
0.0
 11
-28.45842906538996
 21
-9.76077548390259
 31
0.0
  0
LINE
  5
137
330
1F
100
AcDbEntity
  8
1
  6
Continuous
 62
     7
100
AcDbLine
 10
-11.45842906538997
 20
-25.76077548390261
 30
0.0
 11
-11.45842906538997
 21
-25.26077548390261
 31
0.0
  0
LINE
  5
138
330
1F
100
AcDbEntity
  8
1
  6
Continuous
 62
     7
100
AcDbLine
 10
-28.45842906538996
 20
-9.76077548390259
 30
0.0
 11
-28.45842906538996
 21
-12.26077548390259
 31
0.0
  0
LINE
  5
139
330
1F
100
AcDbEntity
  8
1
  6
Continuous
 62
     7
100
AcDbLine
 10
-28.45842906538996
 20
-9.76077548390259
 30
0.0
 11
-24.85842906538997
 21
-9.76077548390259
 31
0.0
  0
LINE
  5
13A
330
1F
100
AcDbEntity
  8
1
  6
Continuous
 62
     7
100
AcDbLine
 10
-28.45842906538996
 20
-12.26077548390259
 30
0.0
 11
-27.45842906538996
 21
-12.26077548390259
 31
0.0
  0
LINE
  5
13B
330
1F
100
AcDbEntity
  8
1
  6
Continuous
 62
     7
100
AcDbLine
 10
-15.45842906538997
 20
-12.26077548390261
 30
0.0
 11
-15.45842906538997
 21
-9.76077548390259
 31
0.0
  0
LINE
  5
13C
330
1F
100
AcDbEntity
  8
1
  6
Continuous
 62
     7
100
AcDbLine
 10
-15.45842906538997
 20
-9.76077548390259
 30
0.0
 11
-3.45842906538997
 21
-9.76077548390261
 31
0.0
  0
LINE
  5
13D
330
1F
100
AcDbEntity
  8
1
  6
Continuous
 62
     7
100
AcDbLine
 10
-27.45842906538996
 20
-12.26077548390259
 30
0.0
 11
-26.45842906538995
 21
-13.26077548390261
 31
0.0
  0
LINE
  5
13E
330
1F
100
AcDbEntity
  8
1
  6
Continuous
 62
     7
100
AcDbLine
 10
-27.45842906538996
 20
-12.26077548390259
 30
0.0
 11
-26.20842906538996
 21
-12.26077548390259
 31
0.0
  0
LINE
  5
13F
330
1F
100
AcDbEntity
  8
1
  6
Continuous
 62
     7
100
AcDbLine
 10
-16.45842906538996
 20
-12.26077548390261
 30
0.0
 11
-17.45842906538996
 21
-13.26077548390261
 31
0.0
  0
LINE
  5
140
330
1F
100
AcDbEntity
  8
1
  6
Continuous
 62
     7
100
AcDbLine
 10
-16.45842906538996
 20
-12.26077548390261
 30
0.0
 11
-15.45842906538997
 21
-12.26077548390261
 31
0.0
  0
LINE
  5
141
330
1F
100
AcDbEntity
  8
1
  6
Continuous
 62
     7
100
AcDbLine
 10
-26.45842906538995
 20
-13.26077548390261
 30
0.0
 11
-17.45842906538996
 21
-13.26077548390261
 31
0.0
  0
LINE
  5
142
330
1F
100
AcDbEntity
  8
1
  6
Continuous
 62
     7
100
AcDbLine
 10
-26.45842906538995
 20
-13.26077548390261
 30
0.0
 11
-25.44451867662155
 21
-14.27468587267101
 31
0.0
  0
LINE
  5
143
330
1F
100
AcDbEntity
  8
1
  6
Continuous
 62
     7
100
AcDbLine
 10
-17.45842906538996
 20
-13.26077548390261
 30
0.0
 11
-18.47233945415838
 21
-14.27468587267101
 31
0.0
  0
LINE
  5
144
330
1F
100
AcDbEntity
  8
1
  6
Continuous
 62
     7
100
AcDbLine
 10
-17.45842906538996
 20
-13.26077548390261
 30
0.0
 11
-13.70842906538997
 21
-13.26077548390261
 31
0.0
  0
LINE
  5
145
330
1F
100
AcDbEntity
  8
1
  6
Continuous
 62
     7
100
AcDbLine
 10
-11.45842906538997
 20
-13.26077548390261
 30
0.0
 11
-11.45842906538997
 21
-11.76077548390261
 31
0.0
  0
LINE
  5
146
330
1F
100
AcDbEntity
  8
1
  6
Continuous
 62
     7
100
AcDbLine
 10
-17.04035017216348
 20
-15.51077548390261
 30
0.0
 11
-13.70842906538997
 21
-15.51077548390261
 31
0.0
  0
LINE
  5
147
330
1F
100
AcDbEntity
  8
1
  6
Continuous
 62
     7
100
AcDbLine
 10
-13.70842906538997
 20
-15.51077548390261
 30
0.0
 11
-13.70842906538997
 21
-24.01077548390261
 31
0.0
  0
LINE
  5
148
330
1F
100
AcDbEntity
  8
1
  6
Continuous
 62
     7
100
AcDbLine
 10
-13.70842906538997
 20
-25.26077548390261
 30
0.0
 11
-11.45842906538997
 21
-25.26077548390261
 31
0.0
  0
LINE
  5
149
330
1F
100
AcDbEntity
  8
1
  6
Continuous
 62
     7
100
AcDbLine
 10
-11.45842906538997
 20
-25.26077548390261
 30
0.0
 11
-11.45842906538997
 21
-22.66077548390261
 31
0.0
  0
LINE
  5
14A
330
1F
100
AcDbEntity
  8
1
  6
Continuous
 62
     7
100
AcDbLine
 10
-13.70842906538997
 20
-13.26077548390261
 30
0.0
 11
-13.70842906538997
 21
-15.51077548390261
 31
0.0
  0
LINE
  5
14B
330
1F
100
AcDbEntity
  8
1
  6
Continuous
 62
     7
100
AcDbLine
 10
-13.70842906538997
 20
-13.26077548390261
 30
0.0
 11
-11.45842906538997
 21
-13.26077548390261
 31
0.0
  0
LINE
  5
14C
330
1F
100
AcDbEntity
  8
1
  6
DOT_CENTER
 62
     2
100
AcDbLine
 10
15.04157093461005
 20
-19.76077548390258
 30
0.0
 11
-17.95842906538996
 21
-19.76077548390261
 31
0.0
  0
LINE
  5
14D
330
1F
100
AcDbEntity
  8
1
  6
DASHED
 62
     2
100
AcDbLine
 10
-11.45842906538997
 20
-22.66077548390261
 30
0.0
 11
-12.09956171538778
 21
-22.66077548390261
 31
0.0
  0
LINE
  5
14E
330
1F
100
AcDbEntity
  8
1
  6
Continuous
 62
     7
100
AcDbLine
 10
-11.45842906538997
 20
-22.66077548390261
 30
0.0
 11
-11.45842906538997
 21
-16.8607754839026
 31
0.0
  0
LINE
  5
14F
330
1F
100
AcDbEntity
  8
1
  6
DASHED
 62
     2
100
AcDbLine
 10
-12.09956171538778
 20
-22.66077548390261
 30
0.0
 11
-13.70842906538997
 21
-24.01077548390261
 31
0.0
  0
LINE
  5
150
330
1F
100
AcDbEntity
  8
1
  6
Continuous
 62
     7
100
AcDbLine
 10
-13.70842906538997
 20
-24.01077548390261
 30
0.0
 11
-13.70842906538997
 21
-25.26077548390261
 31
0.0
  0
LINE
  5
151
330
1F
100
AcDbEntity
  8
1
  6
DASHED
 62
     2
100
AcDbLine
 10
-11.45842906538997
 20
-16.8607754839026
 30
0.0
 11
-12.09956171538778
 21
-16.8607754839026
 31
0.0
  0
LINE
  5
152
330
1F
100
AcDbEntity
  8
1
  6
Continuous
 62
     7
100
AcDbLine
 10
-11.45842906538997
 20
-16.8607754839026
 30
0.0
 11
-11.45842906538997
 21
-13.26077548390261
 31
0.0
  0
LINE
  5
153
330
1F
100
AcDbEntity
  8
1
  6
DASHED
 62
     2
100
AcDbLine
 10
-12.09956171538778
 20
-16.8607754839026
 30
0.0
 11
-13.70842906538997
 21
-15.51077548390261
 31
0.0
  0
LINE
  5
154
330
1F
100
AcDbEntity
  8
1
  6
DASHED
 62
     2
100
AcDbLine
 10
-12.09956171538778
 20
-22.66077548390261
 30
0.0
 11
-12.09956171538778
 21
-16.8607754839026
 31
0.0
  0
LINE
  5
155
330
1F
100
AcDbEntity
  8
1
  6
DOT_CENTER
 62
     2
100
AcDbLine
 10
-21.95842906538996
 20
11.73922451609742
 30
0.0
 11
-21.95842906538996
 21
-27.20547035867941
 31
0.0
  0
LINE
  5
156
330
1F
100
AcDbEntity
  8
1
  6
DASHED
 62
     2
100
AcDbLine
 10
-19.05842906538997
 20
-9.76077548390259
 30
0.0
 11
-19.05842906538997
 21
-10.65190813390041
 31
0.0
  0
LINE
  5
157
330
1F
100
AcDbEntity
  8
1
  6
Continuous
 62
     7
100
AcDbLine
 10
-19.05842906538997
 20
-9.76077548390259
 30
0.0
 11
-15.45842906538997
 21
-9.76077548390259
 31
0.0
  0
LINE
  5
158
330
1F
100
AcDbEntity
  8
1
  6
DASHED
 62
     2
100
AcDbLine
 10
-19.05842906538997
 20
-10.65190813390041
 30
0.0
 11
-17.70842906538996
 21
-12.26077548390259
 31
0.0
  0
LINE
  5
159
330
1F
100
AcDbEntity
  8
1
  6
Continuous
 62
     7
100
AcDbLine
 10
-17.70842906538996
 20
-12.26077548390259
 30
0.0
 11
-16.45842906538996
 21
-12.26077548390261
 31
0.0
  0
LINE
  5
15A
330
1F
100
AcDbEntity
  8
1
  6
DASHED
 62
     2
100
AcDbLine
 10
-24.85842906538997
 20
-9.76077548390259
 30
0.0
 11
-24.85842906538997
 21
-10.65190813390041
 31
0.0
  0
LINE
  5
15B
330
1F
100
AcDbEntity
  8
1
  6
Continuous
 62
     7
100
AcDbLine
 10
-24.85842906538997
 20
-9.76077548390259
 30
0.0
 11
-19.05842906538997
 21
-9.76077548390259
 31
0.0
  0
LINE
  5
15C
330
1F
100
AcDbEntity
  8
1
  6
DASHED
 62
     2
100
AcDbLine
 10
-24.85842906538997
 20
-10.65190813390041
 30
0.0
 11
-26.20842906538996
 21
-12.26077548390259
 31
0.0
  0
LINE
  5
15D
330
1F
100
AcDbEntity
  8
1
  6
Continuous
 62
     7
100
AcDbLine
 10
-26.20842906538996
 20
-12.26077548390259
 30
0.0
 11
-17.70842906538996
 21
-12.26077548390259
 31
0.0
  0
LINE
  5
15E
330
1F
100
AcDbEntity
  8
1
  6
DASHED
 62
     2
100
AcDbLine
 10
-19.05842906538997
 20
-10.65190813390041
 30
0.0
 11
-24.85842906538997
 21
-10.65190813390041
 31
0.0
  0
LINE
  5
15F
330
1F
100
AcDbEntity
  8
1
  6
DOT_CENTER
 62
     2
100
AcDbLine
 10
-17.95842906538996
 20
-19.76077548390261
 30
0.0
 11
-18.20842906538996
 21
-19.76077548390261
 31
0.0
  0
ARC
  5
160
330
1F
100
AcDbEntity
  8
1
  6
Continuous
 62
     7
100
AcDbCircle
 10
47.54157093461004
 20
42.73922451609739
 30
0.0
 40
1.0
100
AcDbArc
 50
0.0
 51
180.0
  0
ARC
  5
161
330
1F
100
AcDbEntity
  8
1
  6
Continuous
 62
     7
100
AcDbCircle
 10
47.43484609977068
 20
42.84741242899901
 30
0.0
 40
3.893275165160637
100
AcDbArc
 50
47.96800467692002
 51
180.0
  0
ARC
  5
162
330
1F
100
AcDbEntity
  8
1
  6
Continuous
 62
     7
100
AcDbCircle
 10
-21.95842906538996
 20
-19.76077548390261
 30
0.0
 40
6.499999999999987
100
AcDbArc
 50
40.83221702746916
 51
57.56642470467845
  0
ARC
  5
163
330
1F
100
AcDbEntity
  8
1
  6
Continuous
 62
     7
100
AcDbCircle
 10
-21.95842906538996
 20
-19.76077548390261
 30
0.0
 40
6.500000000000002
100
AcDbArc
 50
57.56642470467845
 51
122.4335752953216
  0
ARC
  5
164
330
1F
100
AcDbEntity
  8
1
  6
Continuous
 62
     7
100
AcDbCircle
 10
-21.95842906538996
 20
-19.76077548390261
 30
0.0
 40
6.500000000000005
100
AcDbArc
 50
122.4335752953216
 51
40.83221702746916
  0
CIRCLE
  5
165
330
1F
100
AcDbEntity
  8
1
  6
Continuous
 62
     7
100
AcDbCircle
 10
-21.95842906538996
 20
-19.76077548390261
 30
0.0
 40
4.0
  0
ARC
  5
166
102
{ACAD_REACTORS
330
192
330
192
102
}
330
1F
100
AcDbEntity
  8
1
  6
Continuous
 62
     7
100
AcDbCircle
 10
25.33569396546617
 20
25.2392245160974
 30
0.0
 40
2.0
100
AcDbArc
 50
90.0
 51
170.0
  0
ARC
  5
167
102
{ACAD_REACTORS
330
192
330
192
102
}
330
1F
100
AcDbEntity
  8
1
  6
Continuous
 62
     7
100
AcDbCircle
 10
41.04157093461004
 20
25.2392245160974
 30
0.0
 40
2.0
100
AcDbArc
 50
0.0
 51
90.0
  0
ARC
  5
168
102
{ACAD_REACTORS
330
192
330
192
102
}
330
1F
100
AcDbEntity
  8
1
  6
Continuous
 62
     7
100
AcDbCircle
 10
41.04157093461004
 20
-20.26077548390261
 30
0.0
 40
2.0
100
AcDbArc
 50
-90.0
 51
0.0
  0
ARC
  5
169
102
{ACAD_REACTORS
330
192
330
192
102
}
330
1F
100
AcDbEntity
  8
1
  6
Continuous
 62
     7
100
AcDbCircle
 10
35.04157093461004
 20
-20.26077548390261
 30
0.0
 40
2.0
100
AcDbArc
 50
180.0
 51
-90.0
  0
ARC
  5
16A
102
{ACAD_REACTORS
330
192
330
192
102
}
330
1F
100
AcDbEntity
  8
1
  6
Continuous
 62
     7
100
AcDbCircle
 10
41.04157093461004
 20
-20.26077548390261
 30
0.0
 40
0.5
100
AcDbArc
 50
-90.0
 51
0.0
  0
ARC
  5
16B
102
{ACAD_REACTORS
330
192
330
192
102
}
330
1F
100
AcDbEntity
  8
1
  6
Continuous
 62
     7
100
AcDbCircle
 10
35.04157093461004
 20
-20.26077548390261
 30
0.0
 40
0.5
100
AcDbArc
 50
180.0
 51
-90.0
  0
ARC
  5
16C
102
{ACAD_REACTORS
330
192
330
192
102
}
330
1F
100
AcDbEntity
  8
1
  6
Continuous
 62
     7
100
AcDbCircle
 10
41.04157093461004
 20
25.2392245160974
 30
0.0
 40
0.5
100
AcDbArc
 50
0.0
 51
90.0
  0
ARC
  5
16D
102
{ACAD_REACTORS
330
192
330
192
102
}
330
1F
100
AcDbEntity
  8
1
  6
Continuous
 62
     7
100
AcDbCircle
 10
25.33569396546617
 20
25.2392245160974
 30
0.0
 40
0.5
100
AcDbArc
 50
90.0
 51
170.0000000000003
  0
ARC
  5
16E
102
{ACAD_REACTORS
330
191
330
191
102
}
330
1F
100
AcDbEntity
  8
1
  6
Continuous
 62
     7
100
AcDbCircle
 10
-14.95842906538997
 20
6.23922451609741
 30
0.0
 40
2.5
100
AcDbArc
 50
-90.0
 51
0.0
  0
ARC
  5
16F
102
{ACAD_REACTORS
330
191
330
191
102
}
330
1F
100
AcDbEntity
  8
1
  6
Continuous
 62
     7
100
AcDbCircle
 10
-40.95842906538996
 20
41.23922451609741
 30
0.0
 40
2.5
100
AcDbArc
 50
90.0
 51
180.0
  0
ARC
  5
170
102
{ACAD_REACTORS
330
191
330
191
102
}
330
1F
100
AcDbEntity
  8
1
  6
Continuous
 62
     7
100
AcDbCircle
 10
-14.95842906538997
 20
41.23922451609741
 30
0.0
 40
2.5
100
AcDbArc
 50
0.0
 51
90.0
  0
ARC
  5
171
102
{ACAD_REACTORS
330
191
330
191
102
}
330
1F
100
AcDbEntity
  8
1
  6
Continuous
 62
     7
100
AcDbCircle
 10
-40.95842906538996
 20
6.23922451609741
 30
0.0
 40
2.5
100
AcDbArc
 50
180.0
 51
-90.0
  0
ARC
  5
172
102
{ACAD_REACTORS
330
191
330
191
102
}
330
1F
100
AcDbEntity
  8
1
  6
Continuous
 62
     7
100
AcDbCircle
 10
-40.95842906538996
 20
6.23922451609741
 30
0.0
 40
0.5
100
AcDbArc
 50
180.0
 51
-90.0
  0
ARC
  5
173
102
{ACAD_REACTORS
330
191
330
191
102
}
330
1F
100
AcDbEntity
  8
1
  6
Continuous
 62
     7
100
AcDbCircle
 10
-14.95842906538997
 20
6.23922451609741
 30
0.0
 40
0.5
100
AcDbArc
 50
-90.0
 51
0.0
  0
ARC
  5
174
102
{ACAD_REACTORS
330
191
330
191
102
}
330
1F
100
AcDbEntity
  8
1
  6
Continuous
 62
     7
100
AcDbCircle
 10
-14.95842906538997
 20
41.23922451609741
 30
0.0
 40
0.5
100
AcDbArc
 50
0.0
 51
90.0
  0
ARC
  5
175
102
{ACAD_REACTORS
330
191
330
191
102
}
330
1F
100
AcDbEntity
  8
1
  6
Continuous
 62
     7
100
AcDbCircle
 10
-40.95842906538996
 20
41.23922451609741
 30
0.0
 40
0.5
100
AcDbArc
 50
90.0
 51
180.0
  0
ARC
  5
176
330
1F
100
AcDbEntity
  8
1
  6
Continuous
 62
     7
100
AcDbCircle
 10
23.79157093461004
 20
41.752183534079
 30
0.0
 40
0.7500000000000225
100
AcDbArc
 50
-163.9222551796738
 51
-73.92225517967441
  0
ARC
  5
177
330
1F
100
AcDbEntity
  8
1
  6
Continuous
 62
     7
100
AcDbCircle
 10
23.79157093461004
 20
41.752183534079
 30
0.0
 40
0.7500000000000014
100
AcDbArc
 50
-73.92225517967441
 51
16.07774482032582
  0
ARC
  5
178
330
1F
100
AcDbEntity
  8
1
  6
Continuous
 62
     7
100
AcDbCircle
 10
15.08802268684456
 20
47.73922451609738
 30
0.0
 40
1.0
100
AcDbArc
 50
90.0
 51
170.0000000000001
  0
ARC
  5
179
330
1F
100
AcDbEntity
  8
1
  6
Continuous
 62
     7
100
AcDbCircle
 10
19.93340109255101
 20
54.23922451609738
 30
0.0
 40
0.9999999999999968
100
AcDbArc
 50
13.62699485989141
 51
90.0
  0
ARC
  5
17A
330
1F
100
AcDbEntity
  8
1
  6
Continuous
 62
     7
100
AcDbCircle
 10
30.75502991361915
 20
39.73922451609739
 30
0.0
 40
1.0
100
AcDbArc
 50
-90.0
 51
-13.62699485989092
  0
ARC
  5
17B
330
1F
100
AcDbEntity
  8
1
  6
Continuous
 62
     7
100
AcDbCircle
 10
-8.45842906538996
 20
17.73922451609739
 30
0.0
 40
3.0
100
AcDbArc
 50
90.00000000000004
 51
180.0
  0
ARC
  5
17C
330
1F
100
AcDbEntity
  8
1
  6
Continuous
 62
     7
100
AcDbCircle
 10
70.79157093461004
 20
41.752183534079
 30
0.0
 40
0.7500000000000123
100
AcDbArc
 50
-163.9222551796735
 51
-73.92225517967441
  0
ARC
  5
17D
330
1F
100
AcDbEntity
  8
1
  6
Continuous
 62
     7
100
AcDbCircle
 10
70.79157093461004
 20
41.752183534079
 30
0.0
 40
0.7500000000000014
100
AcDbArc
 50
-73.92225517967441
 51
16.07774482032575
  0
ARC
  5
17E
330
1F
100
AcDbEntity
  8
1
  6
Continuous
 62
     7
100
AcDbCircle
 10
62.08802268684457
 20
47.73922451609738
 30
0.0
 40
1.0
100
AcDbArc
 50
90.0
 51
170.0000000000002
  0
ARC
  5
17F
330
1F
100
AcDbEntity
  8
1
  6
Continuous
 62
     7
100
AcDbCircle
 10
46.54157093461004
 20
1.23922451609738
 30
0.0
 40
3.0
100
AcDbArc
 50
90.0
 51
180.0
  0
ARC
  5
180
330
1F
100
AcDbEntity
  8
1
  6
Continuous
 62
     7
100
AcDbCircle
 10
46.54157093461004
 20
19.23922451609738
 30
0.0
 40
3.0
100
AcDbArc
 50
180.0
 51
-90.0
  0
ARC
  5
181
330
1F
100
AcDbEntity
  8
1
  6
Continuous
 62
     7
100
AcDbCircle
 10
32.32811195560093
 20
37.73922451609739
 30
0.0
 40
2.0
100
AcDbArc
 50
-90.0
 51
-13.62699485989116
  0
ARC
  5
182
330
1F
100
AcDbEntity
  8
1
  6
Continuous
 62
     7
100
AcDbCircle
 10
66.93340109255101
 20
54.23922451609738
 30
0.0
 40
0.9999999999999968
100
AcDbArc
 50
13.62699485989141
 51
90.0
  0
ARC
  5
183
330
1F
100
AcDbEntity
  8
1
  6
Continuous
 62
     7
100
AcDbCircle
 10
36.32811195560092
 20
54.23922451609738
 30
0.0
 40
1.000000000000007
100
AcDbArc
 50
90.0
 51
166.3730051401081
  0
ARC
  5
184
330
1F
100
AcDbEntity
  8
1
  6
Continuous
 62
     7
100
AcDbCircle
 10
19.54157093461004
 20
38.73922451609739
 30
0.0
 40
3.0
100
AcDbArc
 50
180.0
 51
-90.0
  0
ARC
  5
185
330
1F
100
AcDbEntity
  8
1
  6
Continuous
 62
     7
100
AcDbCircle
 10
21.04157093461004
 20
14.18260018907146
 30
0.0
 40
1.500000000000002
100
AcDbArc
 50
-60.00000000000004
 51
0.0
  0
ARC
  5
186
330
1F
100
AcDbEntity
  8
1
  6
Continuous
 62
     7
100
AcDbCircle
 10
21.04157093461004
 20
8.37319911231295
 30
0.0
 40
1.5
100
AcDbArc
 50
0.0
 51
59.99999999999986
  0
ARC
  5
187
330
1F
100
AcDbEntity
  8
1
  6
Continuous
 62
     7
100
AcDbCircle
 10
19.54157093461004
 20
-9.26077548390261
 30
0.0
 40
3.000000000000004
100
AcDbArc
 50
-90.0
 51
0.0
  0
ARC
  5
188
330
1F
100
AcDbEntity
  8
1
  6
Continuous
 62
     7
100
AcDbCircle
 10
25.14039934557271
 20
-1.26077548390261
 30
0.0
 40
1.500000000000007
100
AcDbArc
 50
-51.34019174590954
 51
51.34019174590955
  0
ARC
  5
189
330
1F
100
AcDbEntity
  8
1
  6
Continuous
 62
     7
100
AcDbCircle
 10
1.54157093461003
 20
-22.26077548390261
 30
0.0
 40
0.5
100
AcDbArc
 50
-90.0
 51
0.0
  0
ARC
  5
18A
330
1F
100
AcDbEntity
  8
1
  6
Continuous
 62
     7
100
AcDbCircle
 10
-1.45842906538997
 20
-22.26077548390261
 30
0.0
 40
0.5
100
AcDbArc
 50
180.0
 51
-90.0
  0
ARC
  5
18B
330
1F
100
AcDbEntity
  8
1
  6
Continuous
 62
     7
100
AcDbCircle
 10
-2.87729023530578
 20
-17.17963665381842
 30
0.0
 40
0.5811388300841891
100
AcDbArc
 50
-90.00000000000009
 51
-18.43494882292169
  0
ARC
  5
18C
330
1F
100
AcDbEntity
  8
1
  6
Continuous
 62
     7
100
AcDbCircle
 10
-1.79615140522159
 20
-18.67963665381842
 30
0.0
 40
0.5811388300841891
100
AcDbArc
 50
-90.0
 51
-18.43494882292167
  0
ARC
  5
18D
330
1F
100
AcDbEntity
  8
1
  6
Continuous
 62
     7
100
AcDbCircle
 10
8.04157093461003
 20
-22.26077548390261
 30
0.0
 40
0.5
100
AcDbArc
 50
-90.0
 51
0.0
  0
ARC
  5
18E
330
1F
100
AcDbEntity
  8
1
  6
Continuous
 62
     7
100
AcDbCircle
 10
4.04157093461003
 20
-22.26077548390261
 30
0.0
 40
0.5
100
AcDbArc
 50
180.0
 51
-90.0
  0
ARC
  5
18F
330
1F
100
AcDbEntity
  8
1
  6
Continuous
 62
     7
100
AcDbCircle
 10
-3.95842906538997
 20
-22.26077548390261
 30
0.0
 40
0.5
100
AcDbArc
 50
-90.0
 51
0.0
  0
ARC
  5
190
330
1F
100
AcDbEntity
  8
1
  6
Continuous
 62
     7
100
AcDbCircle
 10
-7.95842906538997
 20
-22.26077548390261
 30
0.0
 40
0.5
100
AcDbArc
 50
180.0
 51
-90.0
  0
HATCH
  5
191
330
1F
100
AcDbEntity
  8
1
  6
Continuous
 62
     3
100
AcDbHatch
 10
0.0
 20
0.0
 30
0.0
210
0.0
220
0.0
230
1.0
  2
SOLID
 70
     1
 71
     1
 91
        2
 92
        1
 93
        8
 72
     1
 10
-14.95842906538997
 20
43.73922451609741
 11
-40.95842906538996
 21
43.73922451609741
 72
     2
 10
-40.95842906538996
 20
41.23922451609741
 40
2.5
 50
90.0
 51
180.0
 73
     1
 72
     1
 10
-43.45842906538996
 20
41.23922451609741
 11
-43.45842906538996
 21
6.239224516097409
 72
     2
 10
-40.95842906538996
 20
6.239224516097409
 40
2.5
 50
180.0
 51
270.0
 73
     1
 72
     1
 10
-40.95842906538996
 20
3.739224516097409
 11
-14.95842906538997
 21
3.739224516097409
 72
     2
 10
-14.95842906538997
 20
6.239224516097409
 40
2.5
 50
270.0
 51
360.0
 73
     1
 72
     1
 10
-12.45842906538997
 20
6.239224516097409
 11
-12.45842906538997
 21
41.23922451609741
 72
     2
 10
-14.95842906538997
 20
41.23922451609741
 40
2.5
 50
0.0
 51
90.0
 73
     1
 97
        8
330
46
330
16E
330
47
330
171
330
44
330
16F
330
45
330
170
 92
       16
 93
        8
 72
     1
 10
-41.45842906538996
 20
41.23922451609741
 11
-41.45842906538996
 21
6.239224516097409
 72
     2
 10
-40.95842906538996
 20
6.239224516097409
 40
0.5
 50
180.0
 51
270.0
 73
     1
 72
     1
 10
-40.95842906538996
 20
5.739224516097409
 11
-14.95842906538997
 21
5.739224516097409
 72
     2
 10
-14.95842906538997
 20
6.239224516097409
 40
0.5
 50
270.0
 51
360.0
 73
     1
 72
     1
 10
-14.45842906538997
 20
6.239224516097409
 11
-14.45842906538997
 21
41.23922451609741
 72
     2
 10
-14.95842906538997
 20
41.23922451609741
 40
0.5
 50
0.0
 51
90.0
 73
     1
 72
     1
 10
-14.95842906538997
 20
41.73922451609741
 11
-40.95842906538996
 21
41.73922451609741
 72
     2
 10
-40.95842906538996
 20
41.23922451609741
 40
0.5
 50
90.0
 51
180.0
 73
     1
 97
        8
330
41
330
174
330
42
330
173
330
43
330
172
330
40
330
175
 75
     0
 76
     1
 98
        1
 10
0.0
 20
0.0
  0
HATCH
  5
192
330
1F
100
AcDbEntity
  8
1
  6
Continuous
 62
     3
100
AcDbHatch
 10
0.0
 20
0.0
 30
0.0
210
0.0
220
0.0
230
1.0
  2
SOLID
 70
     1
 71
     1
 91
        1
 92
        1
 93
       20
 72
     1
 10
43.04157093461004
 20
25.2392245160974
 11
43.04157093461004
 21
-20.26077548390261
 72
     2
 10
41.04157093461004
 20
-20.26077548390261
 40
2.0
 50
0.0
 51
90.0
 73
     0
 72
     1
 10
41.04157093461004
 20
-22.26077548390261
 11
35.04157093461004
 21
-22.26077548390261
 72
     2
 10
35.04157093461004
 20
-20.26077548390261
 40
2.0
 50
90.0
 51
180.0
 73
     0
 72
     1
 10
33.04157093461004
 20
-20.26077548390261
 11
33.04157093461004
 21
-12.26077548390261
 72
     1
 10
33.04157093461004
 20
-12.26077548390261
 11
34.54157093461004
 21
-12.26077548390261
 72
     1
 10
34.54157093461004
 20
-12.26077548390261
 11
34.54157093461004
 21
-20.26077548390261
 72
     2
 10
35.04157093461004
 20
-20.26077548390261
 40
0.5
 50
180.0
 51
270.0
 73
     1
 72
     1
 10
35.04157093461004
 20
-20.76077548390261
 11
41.04157093461004
 21
-20.76077548390261
 72
     2
 10
41.04157093461004
 20
-20.26077548390261
 40
0.5
 50
270.0
 51
360.0
 73
     1
 72
     1
 10
41.54157093461004
 20
-20.26077548390261
 11
41.54157093461004
 21
25.2392245160974
 72
     2
 10
41.04157093461004
 20
25.2392245160974
 40
0.5
 50
0.0
 51
90.0
 73
     1
 72
     1
 10
41.04157093461004
 20
25.7392245160974
 11
25.33569396546617
 21
25.7392245160974
 72
     2
 10
25.33569396546617
 20
25.2392245160974
 40
0.5
 50
90.0
 51
170.0000000000003
 73
     1
 72
     1
 10
24.84329008896008
 20
25.32604860493086
 11
24.01878256412834
 21
14.97875224959699
 72
     1
 10
24.01878256412834
 20
14.97875224959699
 11
22.54157093461004
 21
15.23922451609739
 72
     1
 10
22.54157093461004
 20
15.23922451609739
 11
23.36607845944176
 21
25.58652087143126
 72
     2
 10
25.33569396546617
 20
25.2392245160974
 40
2.0
 50
190.0
 51
270.0
 73
     0
 72
     1
 10
25.33569396546617
 20
27.2392245160974
 11
41.04157093461004
 21
27.2392245160974
 72
     2
 10
41.04157093461004
 20
25.2392245160974
 40
2.0
 50
270.0
 51
360.0
 73
     0
 97
       20
330
3B
330
168
330
3A
330
169
330
39
330
38
330
37
330
16B
330
36
330
16A
330
35
330
16C
330
34
330
16D
330
3F
330
3E
330
3D
330
166
330
3C
330
167
 75
     0
 76
     1
 98
        1
 10
0.0
 20
0.0
  0
ENDSEC
  0
SECTION
  2
OBJECTS
  0
DICTIONARY
  5
C
330
0
100
AcDbDictionary
281
     1
  3
ACAD_GROUP
350
D
  3
ACAD_LAYOUT
350
1A
  3
ACAD_MLINESTYLE
350
17
  3
ACAD_PLOTSETTINGS
350
19
  3
ACAD_PLOTSTYLENAME
350
E
  0
DICTIONARY
  5
D
102
{ACAD_REACTORS
330
C
102
}
330
C
100
AcDbDictionary
281
     1
  0
DICTIONARY
  5
1A
102
{ACAD_REACTORS
330
C
102
}
330
C
100
AcDbDictionary
281
     1
  3
Layout1
350
1E
  3
Layout2
350
26
  3
Model
350
22
  0
DICTIONARY
  5
17
102
{ACAD_REACTORS
330
C
102
}
330
C
100
AcDbDictionary
281
     1
  3
Standard
350
18
  0
DICTIONARY
  5
19
102
{ACAD_REACTORS
330
C
102
}
330
C
100
AcDbDictionary
281
     1
  0
ACDBDICTIONARYWDFLT
  5
E
102
{ACAD_REACTORS
330
C
102
}
330
C
100
AcDbDictionary
281
     1
  3
Normal
350
F
100
AcDbDictionaryWithDefault
340
F
  0
LAYOUT
  5
1E
102
{ACAD_REACTORS
330
1A
102
}
330
1A
100
AcDbPlotSettings
  1

  2

  4

  6

 40
0.0
 41
0.0
 42
0.0
 43
0.0
 44
0.0
 45
0.0
 46
0.0
 47
0.0
 48
0.0
 49
0.0
140
0.0
141
0.0
142
1.0
143
1.0
 70
   688
 72
     0
 73
     0
 74
     5
  7

 75
    16
 76
     0
 77
     2
 78
   300
147
1.0
148
0.0
149
0.0
100
AcDbLayout
  1
Layout1
 70
     1
 71
     1
 10
0.0
 20
0.0
 11
0.0
 21
0.0
 12
0.0
 22
0.0
 32
0.0
 14
0.0
 24
0.0
 34
0.0
 15
0.0
 25
0.0
 35
0.0
146
0.0
 13
0.0
 23
0.0
 33
0.0
 16
1.0
 26
0.0
 36
0.0
 17
0.0
 27
1.0
 37
0.0
 76
     0
330
1B
  0
LAYOUT
  5
26
102
{ACAD_REACTORS
330
1A
102
}
330
1A
100
AcDbPlotSettings
  1

  2

  4

  6

 40
0.0
 41
0.0
 42
0.0
 43
0.0
 44
0.0
 45
0.0
 46
0.0
 47
0.0
 48
0.0
 49
0.0
140
0.0
141
0.0
142
1.0
143
1.0
 70
   688
 72
     0
 73
     0
 74
     5
  7

 75
    16
 76
     0
 77
     2
 78
   300
147
1.0
148
0.0
149
0.0
100
AcDbLayout
  1
Layout2
 70
     1
 71
     2
 10
0.0
 20
0.0
 11
0.0
 21
0.0
 12
0.0
 22
0.0
 32
0.0
 14
0.0
 24
0.0
 34
0.0
 15
0.0
 25
0.0
 35
0.0
146
0.0
 13
0.0
 23
0.0
 33
0.0
 16
1.0
 26
0.0
 36
0.0
 17
0.0
 27
1.0
 37
0.0
 76
     0
330
23
  0
LAYOUT
  5
22
102
{ACAD_REACTORS
330
1A
102
}
330
1A
100
AcDbPlotSettings
  1

  2

  4

  6

 40
0.0
 41
0.0
 42
0.0
 43
0.0
 44
0.0
 45
0.0
 46
0.0
 47
0.0
 48
0.0
 49
0.0
140
0.0
141
0.0
142
1.0
143
1.0
 70
  1712
 72
     0
 73
     0
 74
     0
  7

 75
     0
 76
     0
 77
     2
 78
   300
147
1.0
148
0.0
149
0.0
100
AcDbLayout
  1
Model
 70
     1
 71
     0
 10
0.0
 20
0.0
 11
0.0
 21
0.0
 12
0.0
 22
0.0
 32
0.0
 14
-52.45842906538996
 24
-27.20547035867941
 34
0.0
 15
71.54157093461004
 25
55.23922451609741
 35
0.0
146
0.0
 13
0.0
 23
0.0
 33
0.0
 16
1.0
 26
0.0
 36
0.0
 17
0.0
 27
1.0
 37
0.0
 76
     0
330
1F
  0
MLINESTYLE
  5
18
102
{ACAD_REACTORS
330
17
102
}
330
17
100
AcDbMlineStyle
  2
Standard
 70
     0
  3

 62
   256
 51
90.0
 52
90.0
 71
     2
 49
0.5
 62
   256
  6
BYLAYER
 49
-0.5
 62
   256
  6
BYLAYER
  0
ACDBPLACEHOLDER
  5
F
102
{ACAD_REACTORS
330
E
102
}
330
E
  0
ENDSEC
  0
EOF
