  0
SECTION
  2
HEADER
  9
$ACADVER
  1
AC1018
  9
$ACADMAINTVER
 70
     0
  9
$DWGCODEPAGE
  3
ANSI_1252
  9
$INSBASE
 10
0.0
 20
0.0
 30
0.0
  9
$EXTMIN
 10
-73.3708417600158
 20
-26.88849943922432
 30
0.0
  9
$EXTMAX
 10
77.13120023998421
 20
54.40240436936995
 30
0.0
  9
$LIMMIN
 10
0.0
 20
0.0
  9
$LIMMAX
 10
12.0
 20
9.0
  9
$ORTHOMODE
 70
     0
  9
$REGENMODE
 70
     1
  9
$FILLMODE
 70
     1
  9
$QTEXTMODE
 70
     0
  9
$MIRRTEXT
 70
     1
  9
$LTSCALE
 40
1.0
  9
$ATTMODE
 70
     1
  9
$TEXTSIZE
 40
0.2
  9
$TRACEWID
 40
0.05
  9
$TEXTSTYLE
  7
Standard
  9
$CLAYER
  8
0
  9
$CELTYPE
  6
ByLayer
  9
$CECOLOR
 62
   256
  9
$CELTSCALE
 40
1.0
  9
$DISPSILH
 70
     0
  9
$DIMSCALE
 40
1.0
  9
$DIMASZ
 40
0.18
  9
$DIMEXO
 40
0.0625
  9
$DIMDLI
 40
0.38
  9
$DIMRND
 40
0.0
  9
$DIMDLE
 40
0.0
  9
$DIMEXE
 40
0.18
  9
$DIMTP
 40
0.0
  9
$DIMTM
 40
0.0
  9
$DIMTXT
 40
0.18
  9
$DIMCEN
 40
0.09
  9
$DIMTSZ
 40
0.0
  9
$DIMTOL
 70
     0
  9
$DIMLIM
 70
     0
  9
$DIMTIH
 70
     1
  9
$DIMTOH
 70
     1
  9
$DIMSE1
 70
     0
  9
$DIMSE2
 70
     0
  9
$DIMTAD
 70
     0
  9
$DIMZIN
 70
     0
  9
$DIMBLK
  1

  9
$DIMASO
 70
     1
  9
$DIMSHO
 70
     1
  9
$DIMPOST
  1

  9
$DIMAPOST
  1

  9
$DIMALT
 70
     0
  9
$DIMALTD
 70
     2
  9
$DIMALTF
 40
25.4
  9
$DIMLFAC
 40
1.0
  9
$DIMTOFL
 70
     0
  9
$DIMTVP
 40
0.0
  9
$DIMTIX
 70
     0
  9
$DIMSOXD
 70
     0
  9
$DIMSAH
 70
     0
  9
$DIMBLK1
  1

  9
$DIMBLK2
  1

  9
$DIMSTYLE
  2
Standard
  9
$DIMCLRD
 70
     0
  9
$DIMCLRE
 70
     0
  9
$DIMCLRT
 70
     0
  9
$DIMTFAC
 40
1.0
  9
$DIMGAP
 40
0.09
  9
$DIMJUST
 70
     0
  9
$DIMSD1
 70
     0
  9
$DIMSD2
 70
     0
  9
$DIMTOLJ
 70
     1
  9
$DIMTZIN
 70
     0
  9
$DIMALTZ
 70
     0
  9
$DIMALTTZ
 70
     0
  9
$DIMUPT
 70
     0
  9
$DIMDEC
 70
     4
  9
$DIMTDEC
 70
     4
  9
$DIMALTU
 70
     2
  9
$DIMALTTD
 70
     2
  9
$DIMTXSTY
  7
Standard
  9
$DIMAUNIT
 70
     0
  9
$DIMADEC
 70
     0
  9
$DIMALTRND
 40
0.0
  9
$DIMAZIN
 70
     0
  9
$DIMDSEP
 70
    46
  9
$DIMATFIT
 70
     3
  9
$DIMFRAC
 70
     0
  9
$DIMLDRBLK
  1

  9
$DIMLUNIT
 70
     2
  9
$DIMLWD
 70
    -2
  9
$DIMLWE
 70
    -2
  9
$DIMTMOVE
 70
     0
  9
$LUNITS
 70
     2
  9
$LUPREC
 70
     4
  9
$SKETCHINC
 40
0.1
  9
$FILLETRAD
 40
0.5
  9
$AUNITS
 70
     0
  9
$AUPREC
 70
     0
  9
$MENU
  1
.
  9
$ELEVATION
 40
0.0
  9
$PELEVATION
 40
0.0
  9
$THICKNESS
 40
0.0
  9
$LIMCHECK
 70
     0
  9
$CHAMFERA
 40
0.5
  9
$CHAMFERB
 40
0.5
  9
$CHAMFERC
 40
1.0
  9
$CHAMFERD
 40
0.0
  9
$SKPOLY
 70
     0
  9
$TDCREATE
 40
2454483.38086191
  9
$TDUCREATE
 40
2454483.339195243
  9
$TDUPDATE
 40
2454483.380861921
  9
$TDUUPDATE
 40
2454483.339195255
  9
$TDINDWG
 40
0.0000000116
  9
$TDUSRTIMER
 40
0.0000000116
  9
$USRTIMER
 70
     1
  9
$ANGBASE
 50
0.0
  9
$ANGDIR
 70
     0
  9
$PDMODE
 70
     0
  9
$PDSIZE
 40
0.0
  9
$PLINEWID
 40
0.0
  9
$SPLFRAME
 70
     0
  9
$SPLINETYPE
 70
     6
  9
$SPLINESEGS
 70
     8
  9
$HANDSEED
  5
184
  9
$SURFTAB1
 70
     6
  9
$SURFTAB2
 70
     6
  9
$SURFTYPE
 70
     6
  9
$SURFU
 70
     6
  9
$SURFV
 70
     6
  9
$UCSBASE
  2

  9
$UCSNAME
  2

  9
$UCSORG
 10
0.0
 20
0.0
 30
0.0
  9
$UCSXDIR
 10
1.0
 20
0.0
 30
0.0
  9
$UCSYDIR
 10
0.0
 20
1.0
 30
0.0
  9
$UCSORTHOREF
  2

  9
$UCSORTHOVIEW
 70
     0
  9
$UCSORGTOP
 10
0.0
 20
0.0
 30
0.0
  9
$UCSORGBOTTOM
 10
0.0
 20
0.0
 30
0.0
  9
$UCSORGLEFT
 10
0.0
 20
0.0
 30
0.0
  9
$UCSORGRIGHT
 10
0.0
 20
0.0
 30
0.0
  9
$UCSORGFRONT
 10
0.0
 20
0.0
 30
0.0
  9
$UCSORGBACK
 10
0.0
 20
0.0
 30
0.0
  9
$PUCSBASE
  2

  9
$PUCSNAME
  2

  9
$PUCSORG
 10
0.0
 20
0.0
 30
0.0
  9
$PUCSXDIR
 10
1.0
 20
0.0
 30
0.0
  9
$PUCSYDIR
 10
0.0
 20
1.0
 30
0.0
  9
$PUCSORTHOREF
  2

  9
$PUCSORTHOVIEW
 70
     0
  9
$PUCSORGTOP
 10
0.0
 20
0.0
 30
0.0
  9
$PUCSORGBOTTOM
 10
0.0
 20
0.0
 30
0.0
  9
$PUCSORGLEFT
 10
0.0
 20
0.0
 30
0.0
  9
$PUCSORGRIGHT
 10
0.0
 20
0.0
 30
0.0
  9
$PUCSORGFRONT
 10
0.0
 20
0.0
 30
0.0
  9
$PUCSORGBACK
 10
0.0
 20
0.0
 30
0.0
  9
$USERI1
 70
     0
  9
$USERI2
 70
     0
  9
$USERI3
 70
     0
  9
$USERI4
 70
     0
  9
$USERI5
 70
     0
  9
$USERR1
 40
14.5
  9
$USERR2
 40
0.0
  9
$USERR3
 40
0.0
  9
$USERR4
 40
0.0
  9
$USERR5
 40
0.0
  9
$WORLDVIEW
 70
     1
  9
$SHADEDGE
 70
     3
  9
$SHADEDIF
 70
    70
  9
$TILEMODE
 70
     1
  9
$MAXACTVP
 70
    64
  9
$PINSBASE
 10
0.0
 20
0.0
 30
0.0
  9
$PLIMCHECK
 70
     0
  9
$PEXTMIN
 10
1.00000000000000E+20
 20
1.00000000000000E+20
 30
1.00000000000000E+20
  9
$PEXTMAX
 10
-1.00000000000000E+20
 20
-1.00000000000000E+20
 30
-1.00000000000000E+20
  9
$PLIMMIN
 10
0.0
 20
0.0
  9
$PLIMMAX
 10
12.0
 20
9.0
  9
$UNITMODE
 70
     0
  9
$VISRETAIN
 70
     1
  9
$PLINEGEN
 70
     0
  9
$PSLTSCALE
 70
     1
  9
$TREEDEPTH
 70
  3020
  9
$CMLSTYLE
  2
Standard
  9
$CMLJUST
 70
     0
  9
$CMLSCALE
 40
1.0
  9
$PROXYGRAPHICS
 70
     1
  9
$MEASUREMENT
 70
     1
  9
$CELWEIGHT
370
    -1
  9
$ENDCAPS
280
     0
  9
$JOINSTYLE
280
     0
  9
$LWDISPLAY
290
     0
  9
$INSUNITS
 70
     1
  9
$HYPERLINKBASE
  1

  9
$STYLESHEET
  1

  9
$XEDIT
290
     1
  9
$CEPSNTYPE
380
     0
  9
$PSTYLEMODE
290
     1
  9
$FINGERPRINTGUID
  2
{F20645B6-D347-46DF-8900-8ED20033FE67}
  9
$VERSIONGUID
  2
{FAEB1C32-E019-11D5-929B-00C0DF256EC4}
  9
$EXTNAMES
290
     1
  9
$PSVPSCALE
 40
0.0
  9
$OLESTARTUP
290
     0
  9
$SORTENTS
280
   127
  9
$INDEXCTL
280
     0
  9
$HIDETEXT
280
     1
  9
$XCLIPFRAME
290
     0
  9
$HALOGAP
280
     0
  9
$OBSCOLOR
 70
   257
  9
$OBSLTYPE
280
     0
  9
$INTERSECTIONDISPLAY
280
     0
  9
$INTERSECTIONCOLOR
 70
   257
  9
$DIMASSOC
280
     2
  9
$PROJECTNAME
  1

  0
ENDSEC
  0
SECTION
  2
CLASSES
  0
CLASS
  1
ACDBDICTIONARYWDFLT
  2
AcDbDictionaryWithDefault
  3
ObjectDBX Classes
 90
        0
 91
        3
280
     0
281
     0
  0
CLASS
  1

  2
exOdDbCircle
  3

 90
        0
 91
        3
280
     0
281
     1
  0
ENDSEC
  0
SECTION
  2
TABLES
  0
TABLE
  2
VPORT
  5
8
330
0
100
AcDbSymbolTable
 70
     1
  0
VPORT
  5
29
330
8
100
AcDbSymbolTableRecord
100
AcDbViewportTableRecord
  2
*Active
 70
     0
 10
0.0
 20
0.0
 11
1.0
 21
1.0
 12
1.88017923998421
 22
13.75695246507281
 13
0.0
 23
0.0
 14
0.5
 24
0.5
 15
0.5
 25
0.5
 16
0.0
 26
0.0
 36
1.0
 17
0.0
 27
0.0
 37
0.0
 40
103.2972232557104
 41
1.60267857142857
 42
50.0
 43
0.0
 44
0.0
 50
0.0
 51
0.0
 71
     0
 72
   100
 73
     1
 74
     3
 75
     0
 76
     0
 77
     0
 78
     0
281
     0
 65
     1
110
0.0
120
0.0
130
0.0
111
1.0
121
0.0
131
0.0
112
0.0
122
1.0
132
0.0
 79
     0
146
0.0
  0
ENDTAB
  0
TABLE
  2
LTYPE
  5
5
330
0
100
AcDbSymbolTable
 70
     8
  0
LTYPE
  5
14
330
5
100
AcDbSymbolTableRecord
100
AcDbLinetypeTableRecord
  2
ByBlock
 70
     0
  3

 72
    65
 73
     0
 40
0.0
  0
LTYPE
  5
15
330
5
100
AcDbSymbolTableRecord
100
AcDbLinetypeTableRecord
  2
ByLayer
 70
     0
  3

 72
    65
 73
     0
 40
0.0
  0
LTYPE
  5
16
330
5
100
AcDbSymbolTableRecord
100
AcDbLinetypeTableRecord
  2
Continuous
 70
     0
  3
Solid line
 72
    65
 73
     0
 40
0.0
  0
LTYPE
  5
2A
330
5
100
AcDbSymbolTableRecord
100
AcDbLinetypeTableRecord
  2
DASHED
 70
     0
  3
Dashed
 72
    65
 73
     2
 40
15.0
 49
7.0
 74
     0
 49
-8.0
 74
     0
  0
LTYPE
  5
2B
330
5
100
AcDbSymbolTableRecord
100
AcDbLinetypeTableRecord
  2
DOTTED
 70
     0
  3
Dotted
 72
    65
 73
     2
 40
1.0
 49
0.0
 74
     0
 49
-1.0
 74
     0
  0
LTYPE
  5
2C
330
5
100
AcDbSymbolTableRecord
100
AcDbLinetypeTableRecord
  2
DOT_CENTER
 70
     0
  3
Dot_Center
 72
    65
 73
     4
 40
14.0
 49
12.0
 74
     0
 49
-1.0
 74
     0
 49
0.0
 74
     0
 49
-1.0
 74
     0
  0
LTYPE
  5
2D
330
5
100
AcDbSymbolTableRecord
100
AcDbLinetypeTableRecord
  2
LONG_DASHED
 70
     0
  3
Long_Dashed
 72
    65
 73
     2
 40
15.0
 49
10.0
 74
     0
 49
-5.0
 74
     0
  0
LTYPE
  5
2E
330
5
100
AcDbSymbolTableRecord
100
AcDbLinetypeTableRecord
  2
DASH_CENTER
 70
     0
  3
Dash_Center
 72
    65
 73
     4
 40
14.0
 49
11.0
 74
     0
 49
-1.0
 74
     0
 49
1.0
 74
     0
 49
-1.0
 74
     0
  0
LTYPE
  5
2F
330
5
100
AcDbSymbolTableRecord
100
AcDbLinetypeTableRecord
  2
PHANTOM
 70
     0
  3
Phantom
 72
    65
 73
     6
 40
13.0
 49
10.0
 74
     0
 49
-1.0
 74
     0
 49
0.0
 74
     0
 49
-1.0
 74
     0
 49
0.0
 74
     0
 49
-1.0
 74
     0
  0
LTYPE
  5
30
330
5
100
AcDbSymbolTableRecord
100
AcDbLinetypeTableRecord
  2
CENTER_DASH_DASH
 70
     0
  3
Center_Dash_Dash
 72
    65
 73
     6
 40
14.0
 49
9.0
 74
     0
 49
-1.0
 74
     0
 49
1.0
 74
     0
 49
-1.0
 74
     0
 49
1.0
 74
     0
 49
-1.0
 74
     0
  0
ENDTAB
  0
TABLE
  2
LAYER
  5
2
330
0
100
AcDbSymbolTable
 70
     3
  0
LAYER
  5
10
330
2
100
AcDbSymbolTableRecord
100
AcDbLayerTableRecord
  2
0
 70
     0
 62
     7
  6
Continuous
370
    -3
390
F
  0
LAYER
  5
31
330
2
100
AcDbSymbolTableRecord
100
AcDbLayerTableRecord
  2
1
 70
     0
 62
     7
  6
Continuous
370
    -3
390
F
  0
LAYER
  5
32
330
2
100
AcDbSymbolTableRecord
100
AcDbLayerTableRecord
  2
AKONTUR
 70
     0
 62
     7
  6
Continuous
370
    -3
390
F
  0
ENDTAB
  0
TABLE
  2
STYLE
  5
3
330
0
100
AcDbSymbolTable
 70
     1
  0
STYLE
  5
11
330
3
100
AcDbSymbolTableRecord
100
AcDbTextStyleTableRecord
  2
Standard
 70
     0
 40
0.0
 41
1.0
 50
0.0
 71
     0
 42
0.2
  3
txt
  4

  0
ENDTAB
  0
TABLE
  2
VIEW
  5
6
330
0
100
AcDbSymbolTable
 70
     0
  0
ENDTAB
  0
TABLE
  2
UCS
  5
7
330
0
100
AcDbSymbolTable
 70
     0
  0
ENDTAB
  0
TABLE
  2
APPID
  5
9
330
0
100
AcDbSymbolTable
 70
     1
  0
APPID
  5
12
330
9
100
AcDbSymbolTableRecord
100
AcDbRegAppTableRecord
  2
ACAD
 70
     0
  0
ENDTAB
  0
TABLE
  2
DIMSTYLE
  5
A
330
0
100
AcDbSymbolTable
 70
     1
100
AcDbDimStyleTable
  0
DIMSTYLE
105
27
330
A
100
AcDbSymbolTableRecord
100
AcDbDimStyleTableRecord
  2
Standard
 70
     0
340
11
  0
ENDTAB
  0
TABLE
  2
BLOCK_RECORD
  5
1
330
0
100
AcDbSymbolTable
 70
     1
  0
BLOCK_RECORD
  5
1F
330
1
100
AcDbSymbolTableRecord
100
AcDbBlockTableRecord
  2
*Model_Space
340
22
  0
BLOCK_RECORD
  5
1B
330
1
100
AcDbSymbolTableRecord
100
AcDbBlockTableRecord
  2
*Paper_Space
340
1E
  0
BLOCK_RECORD
  5
23
330
1
100
AcDbSymbolTableRecord
100
AcDbBlockTableRecord
  2
*Paper_Space0
340
26
  0
ENDTAB
  0
ENDSEC
  0
SECTION
  2
BLOCKS
  0
BLOCK
  5
20
330
1F
100
AcDbEntity
  8
0
100
AcDbBlockBegin
  2
*Model_Space
 70
     0
 71
     0
 10
0.0
 20
0.0
 30
0.0
  3
*Model_Space
  1

  0
ENDBLK
  5
21
330
1F
100
AcDbEntity
  8
0
100
AcDbBlockEnd
  0
BLOCK
  5
1C
330
1B
100
AcDbEntity
 67
     1
  8
0
100
AcDbBlockBegin
  2
*Paper_Space
 70
     0
 71
     0
 10
0.0
 20
0.0
 30
0.0
  3
*Paper_Space
  1

  0
ENDBLK
  5
1D
330
1B
100
AcDbEntity
 67
     1
  8
0
100
AcDbBlockEnd
  0
BLOCK
  5
24
330
23
100
AcDbEntity
  8
0
100
AcDbBlockBegin
  2
*Paper_Space0
 70
     0
 71
     0
 10
0.0
 20
0.0
 30
0.0
  3
*Paper_Space0
  1

  0
ENDBLK
  5
25
330
23
100
AcDbEntity
  8
0
100
AcDbBlockEnd
  0
ENDSEC
  0
SECTION
  2
ENTITIES
  0
LINE
  5
33
102
{ACAD_REACTORS
330
182
330
182
102
}
330
1F
100
AcDbEntity
  8
0
  6
Continuous
 62
     7
100
AcDbLine
 10
-3.45780976001579
 20
17.79634336936968
 30
0.0
 11
-3.45780976001579
 21
15.79634336936968
 31
0.0
  0
LINE
  5
34
102
{ACAD_REACTORS
330
182
330
182
102
}
330
1F
100
AcDbEntity
  8
0
  6
Continuous
 62
     7
100
AcDbLine
 10
-3.45780976001579
 20
15.79634336936968
 30
0.0
 11
-5.45780976001579
 21
15.79634336936968
 31
0.0
  0
LINE
  5
35
102
{ACAD_REACTORS
330
182
330
182
102
}
330
1F
100
AcDbEntity
  8
0
  6
Continuous
 62
     7
100
AcDbLine
 10
-5.45780976001579
 20
15.79634336936968
 30
0.0
 11
-5.45780976001579
 21
18.29634336936968
 31
0.0
  0
LINE
  5
36
102
{ACAD_REACTORS
330
182
330
182
102
}
330
1F
100
AcDbEntity
  8
0
  6
Continuous
 62
     7
100
AcDbLine
 10
-3.45780976001579
 20
20.29634336936968
 30
0.0
 11
50.54219023998421
 21
20.29634336936968
 31
0.0
  0
LINE
  5
37
102
{ACAD_REACTORS
330
182
330
182
102
}
330
1F
100
AcDbEntity
  8
0
  6
Continuous
 62
     7
100
AcDbLine
 10
53.04219023998421
 20
17.79634336936968
 30
0.0
 11
53.04219023998421
 21
-2.70365663063032
 31
0.0
  0
LINE
  5
38
102
{ACAD_REACTORS
330
182
330
182
102
}
330
1F
100
AcDbEntity
  8
0
  6
Continuous
 62
     7
100
AcDbLine
 10
50.54219023998421
 20
-5.20365663063032
 30
0.0
 11
1.04219023998421
 21
-5.20365663063032
 31
0.0
  0
LINE
  5
39
102
{ACAD_REACTORS
330
182
330
182
102
}
330
1F
100
AcDbEntity
  8
0
  6
Continuous
 62
     7
100
AcDbLine
 10
1.04219023998421
 20
-5.20365663063032
 30
0.0
 11
1.04219023998421
 21
-3.20365663063032
 31
0.0
  0
LINE
  5
3A
102
{ACAD_REACTORS
330
182
330
182
102
}
330
1F
100
AcDbEntity
  8
0
  6
Continuous
 62
     7
100
AcDbLine
 10
1.04219023998421
 20
-3.20365663063032
 30
0.0
 11
50.54219023998421
 21
-3.20365663063032
 31
0.0
  0
LINE
  5
3B
102
{ACAD_REACTORS
330
182
330
182
102
}
330
1F
100
AcDbEntity
  8
0
  6
Continuous
 62
     7
100
AcDbLine
 10
51.04219023998421
 20
-2.70365663063032
 30
0.0
 11
51.04219023998421
 21
17.79634336936968
 31
0.0
  0
LINE
  5
3C
102
{ACAD_REACTORS
330
182
330
182
102
}
330
1F
100
AcDbEntity
  8
0
  6
Continuous
 62
     7
100
AcDbLine
 10
50.54219023998421
 20
18.29634336936968
 30
0.0
 11
-2.95780976001579
 21
18.29634336936968
 31
0.0
  0
LINE
  5
3D
330
1F
100
AcDbEntity
  8
0
  6
Continuous
 62
     7
100
AcDbLine
 10
-1.56879976001579
 20
25.0445923693697
 30
0.0
 11
-1.56879976001579
 21
34.60768436936968
 31
0.0
  0
LINE
  5
3E
330
1F
100
AcDbEntity
  8
0
  6
Continuous
 62
     7
100
AcDbLine
 10
-1.56879976001579
 20
34.60768436936968
 30
0.0
 11
6.3812002399842
 21
34.60768436936968
 31
0.0
  0
LINE
  5
3F
330
1F
100
AcDbEntity
  8
0
  6
Continuous
 62
     7
100
AcDbLine
 10
6.3812002399842
 20
34.60768436936968
 30
0.0
 11
6.3812002399842
 21
22.40768436936969
 31
0.0
  0
LINE
  5
40
330
1F
100
AcDbEntity
  8
0
  6
Continuous
 62
     7
100
AcDbLine
 10
6.3812002399842
 20
22.40768436936969
 30
0.0
 11
-7.06879976001579
 21
22.40768436936969
 31
0.0
  0
LINE
  5
41
330
1F
100
AcDbEntity
  8
0
  6
Continuous
 62
     7
100
AcDbLine
 10
-7.06879976001579
 20
22.40768436936969
 30
0.0
 11
-7.06879976001579
 21
24.9534303693697
 31
0.0
  0
LINE
  5
42
330
1F
100
AcDbEntity
  8
0
  6
Continuous
 62
     7
100
AcDbLine
 10
-7.06879976001579
 20
24.9534303693697
 30
0.0
 11
-3.59932376001579
 21
23.64154336936969
 31
0.0
  0
LINE
  5
43
330
1F
100
AcDbEntity
  8
0
  6
Continuous
 62
     7
100
AcDbLine
 10
22.8812002399842
 20
34.60768436936968
 30
0.0
 11
7.8812002399842
 21
34.60768436936968
 31
0.0
  0
LINE
  5
44
330
1F
100
AcDbEntity
  8
0
  6
Continuous
 62
     7
100
AcDbLine
 10
7.8812002399842
 20
34.60768436936968
 30
0.0
 11
7.8812002399842
 21
22.40768436936969
 31
0.0
  0
LINE
  5
45
330
1F
100
AcDbEntity
  8
0
  6
Continuous
 62
     7
100
AcDbLine
 10
7.8812002399842
 20
22.40768436936969
 30
0.0
 11
22.8812002399842
 21
22.40768436936969
 31
0.0
  0
LINE
  5
46
330
1F
100
AcDbEntity
  8
0
  6
Continuous
 62
     7
100
AcDbLine
 10
22.8812002399842
 20
22.40768436936969
 30
0.0
 11
22.8812002399842
 21
34.60768436936968
 31
0.0
  0
LINE
  5
47
330
1F
100
AcDbEntity
  8
0
  6
Continuous
 62
     7
100
AcDbLine
 10
24.3812002399842
 20
34.60768436936968
 30
0.0
 11
24.3812002399842
 21
22.40768436936969
 31
0.0
  0
LINE
  5
48
330
1F
100
AcDbEntity
  8
0
  6
Continuous
 62
     7
100
AcDbLine
 10
24.3812002399842
 20
22.40768436936969
 30
0.0
 11
39.3812002399842
 21
22.40768436936969
 31
0.0
  0
LINE
  5
49
330
1F
100
AcDbEntity
  8
0
  6
Continuous
 62
     7
100
AcDbLine
 10
39.3812002399842
 20
22.40768436936969
 30
0.0
 11
39.3812002399842
 21
34.60768436936968
 31
0.0
  0
LINE
  5
4A
330
1F
100
AcDbEntity
  8
0
  6
Continuous
 62
     7
100
AcDbLine
 10
39.3812002399842
 20
34.60768436936968
 30
0.0
 11
24.3812002399842
 21
34.60768436936968
 31
0.0
  0
LINE
  5
4B
330
1F
100
AcDbEntity
  8
0
  6
Continuous
 62
     7
100
AcDbLine
 10
48.8312002399842
 20
25.0445923693697
 30
0.0
 11
48.8312002399842
 21
34.60768436936968
 31
0.0
  0
LINE
  5
4C
330
1F
100
AcDbEntity
  8
0
  6
Continuous
 62
     7
100
AcDbLine
 10
48.8312002399842
 20
34.60768436936968
 30
0.0
 11
40.8812002399842
 21
34.60768436936968
 31
0.0
  0
LINE
  5
4D
330
1F
100
AcDbEntity
  8
0
  6
Continuous
 62
     7
100
AcDbLine
 10
40.8812002399842
 20
34.60768436936968
 30
0.0
 11
40.8812002399842
 21
22.40768436936969
 31
0.0
  0
LINE
  5
4E
330
1F
100
AcDbEntity
  8
0
  6
Continuous
 62
     7
100
AcDbLine
 10
40.8812002399842
 20
22.40768436936969
 30
0.0
 11
54.3312002399842
 21
22.40768436936969
 31
0.0
  0
LINE
  5
4F
330
1F
100
AcDbEntity
  8
0
  6
Continuous
 62
     7
100
AcDbLine
 10
54.3312002399842
 20
22.40768436936969
 30
0.0
 11
54.3312002399842
 21
24.9534303693697
 31
0.0
  0
LINE
  5
50
330
1F
100
AcDbEntity
  8
0
  6
Continuous
 62
     7
100
AcDbLine
 10
54.3312002399842
 20
24.9534303693697
 30
0.0
 11
50.86172423998421
 21
23.64154336936969
 31
0.0
  0
LINE
  5
51
330
1F
100
AcDbEntity
  8
0
  6
Continuous
 62
     7
100
AcDbLine
 10
2.93120023998421
 20
0.95768436936969
 30
0.0
 11
2.93120023998421
 21
2.20768436936969
 31
0.0
  0
LINE
  5
52
330
1F
100
AcDbEntity
  8
0
  6
Continuous
 62
     7
100
AcDbLine
 10
2.93120023998421
 20
2.20768436936969
 30
0.0
 11
0.93120023998421
 21
2.20768436936969
 31
0.0
  0
LINE
  5
53
330
1F
100
AcDbEntity
  8
0
  6
Continuous
 62
     7
100
AcDbLine
 10
0.93120023998421
 20
2.20768436936969
 30
0.0
 11
0.93120023998421
 21
4.70768436936969
 31
0.0
  0
LINE
  5
54
330
1F
100
AcDbEntity
  8
0
  6
Continuous
 62
     7
100
AcDbLine
 10
0.93120023998421
 20
4.70768436936969
 30
0.0
 11
2.93120023998421
 21
4.70768436936969
 31
0.0
  0
LINE
  5
55
330
1F
100
AcDbEntity
  8
0
  6
Continuous
 62
     7
100
AcDbLine
 10
2.93120023998421
 20
4.70768436936969
 30
0.0
 11
2.93120023998421
 21
5.95768436936969
 31
0.0
  0
LINE
  5
56
330
1F
100
AcDbEntity
  8
0
  6
Continuous
 62
     7
100
AcDbLine
 10
2.93120023998421
 20
5.95768436936969
 30
0.0
 11
0.93120023998421
 21
7.95768436936969
 31
0.0
  0
LINE
  5
57
330
1F
100
AcDbEntity
  8
0
  6
Continuous
 62
     7
100
AcDbLine
 10
0.93120023998421
 20
7.95768436936969
 30
0.0
 11
0.93120023998421
 21
12.35768436936968
 31
0.0
  0
LINE
  5
58
330
1F
100
AcDbEntity
  8
0
  6
Continuous
 62
     7
100
AcDbLine
 10
-1.06879976001579
 20
14.35768436936968
 30
0.0
 11
-7.06879976001579
 21
14.35768436936968
 31
0.0
  0
LINE
  5
59
330
1F
100
AcDbEntity
  8
0
  6
Continuous
 62
     7
100
AcDbLine
 10
-7.06879976001579
 20
14.35768436936968
 30
0.0
 11
-7.06879976001579
 21
20.90768436936969
 31
0.0
  0
LINE
  5
5A
330
1F
100
AcDbEntity
  8
0
  6
Continuous
 62
     7
100
AcDbLine
 10
-7.06879976001579
 20
20.90768436936969
 30
0.0
 11
54.3312002399842
 21
20.90768436936969
 31
0.0
  0
LINE
  5
5B
330
1F
100
AcDbEntity
  8
0
  6
Continuous
 62
     7
100
AcDbLine
 10
54.3312002399842
 20
20.90768436936969
 30
0.0
 11
54.3312002399842
 21
-6.09231563063031
 31
0.0
  0
LINE
  5
5C
330
1F
100
AcDbEntity
  8
0
  6
Continuous
 62
     7
100
AcDbLine
 10
54.3312002399842
 20
-6.09231563063031
 30
0.0
 11
0.93120023998421
 21
-6.09231563063031
 31
0.0
  0
LINE
  5
5D
330
1F
100
AcDbEntity
  8
0
  6
Continuous
 62
     7
100
AcDbLine
 10
0.93120023998421
 20
-6.09231563063031
 30
0.0
 11
0.93120023998421
 21
-1.04231563063031
 31
0.0
  0
LINE
  5
5E
330
1F
100
AcDbEntity
  8
0
  6
Continuous
 62
     7
100
AcDbLine
 10
0.93120023998421
 20
-1.04231563063031
 30
0.0
 11
2.93120023998421
 21
0.95768436936969
 31
0.0
  0
LINE
  5
5F
330
1F
100
AcDbEntity
  8
0
  6
Continuous
 62
     7
100
AcDbLine
 10
-10.56879976001579
 20
-7.59231563063031
 30
0.0
 11
-8.3517167600158
 21
-7.59231563063031
 31
0.0
  0
LINE
  5
60
330
1F
100
AcDbEntity
  8
0
  6
Continuous
 62
     7
100
AcDbLine
 10
-8.3517167600158
 20
-7.59231563063031
 30
0.0
 11
-8.3517167600158
 21
-19.7923156306303
 31
0.0
  0
LINE
  5
61
330
1F
100
AcDbEntity
  8
0
  6
Continuous
 62
     7
100
AcDbLine
 10
-8.3517167600158
 20
-19.7923156306303
 30
0.0
 11
-25.4925337600158
 21
-19.7923156306303
 31
0.0
  0
LINE
  5
62
330
1F
100
AcDbEntity
  8
0
  6
Continuous
 62
     7
100
AcDbLine
 10
-25.4925337600158
 20
-19.7923156306303
 30
0.0
 11
-25.9474747600158
 21
-14.59231563063031
 31
0.0
  0
LINE
  5
63
330
1F
100
AcDbEntity
  8
0
  6
Continuous
 62
     7
100
AcDbLine
 10
-25.9474747600158
 20
-14.59231563063031
 30
0.0
 11
-21.0983697600158
 21
-14.59231563063031
 31
0.0
  0
LINE
  5
64
330
1F
100
AcDbEntity
  8
0
  6
Continuous
 62
     7
100
AcDbLine
 10
-20.0983697600158
 20
-13.59231563063031
 30
0.0
 11
-20.0983697600158
 21
-11.56174963063032
 31
0.0
  0
LINE
  5
65
330
1F
100
AcDbEntity
  8
0
  6
Continuous
 62
     7
100
AcDbLine
 10
-20.0983697600158
 20
-11.56174963063032
 30
0.0
 11
-18.9296557600158
 21
-10.39231563063032
 31
0.0
  0
LINE
  5
66
330
1F
100
AcDbEntity
  8
0
  6
Continuous
 62
     7
100
AcDbLine
 10
-18.9296557600158
 20
-10.39231563063032
 30
0.0
 11
-10.56879976001579
 21
-10.39231563063032
 31
0.0
  0
LINE
  5
67
330
1F
100
AcDbEntity
  8
0
  6
Continuous
 62
     7
100
AcDbLine
 10
-10.56879976001579
 20
-10.39231563063032
 30
0.0
 11
-10.56879976001579
 21
-7.59231563063031
 31
0.0
  0
LINE
  5
68
330
1F
100
AcDbEntity
  8
0
  6
Continuous
 62
     7
100
AcDbLine
 10
-6.8517167600158
 20
-19.7923156306303
 30
0.0
 11
6.3812002399842
 21
-19.7923156306303
 31
0.0
  0
LINE
  5
69
330
1F
100
AcDbEntity
  8
0
  6
Continuous
 62
     7
100
AcDbLine
 10
6.3812002399842
 20
-19.7923156306303
 30
0.0
 11
6.3812002399842
 21
-7.59231563063031
 31
0.0
  0
LINE
  5
6A
330
1F
100
AcDbEntity
  8
0
  6
Continuous
 62
     7
100
AcDbLine
 10
6.3812002399842
 20
-7.59231563063031
 30
0.0
 11
-6.8517167600158
 21
-7.59231563063031
 31
0.0
  0
LINE
  5
6B
330
1F
100
AcDbEntity
  8
0
  6
Continuous
 62
     7
100
AcDbLine
 10
-6.8517167600158
 20
-7.59231563063031
 30
0.0
 11
-6.8517167600158
 21
-19.7923156306303
 31
0.0
  0
LINE
  5
6C
330
1F
100
AcDbEntity
  8
0
  6
Continuous
 62
     7
100
AcDbLine
 10
7.8812002399842
 20
-19.7923156306303
 30
0.0
 11
39.3812002399842
 21
-19.7923156306303
 31
0.0
  0
LINE
  5
6D
330
1F
100
AcDbEntity
  8
0
  6
Continuous
 62
     7
100
AcDbLine
 10
39.3812002399842
 20
-19.7923156306303
 30
0.0
 11
39.3812002399842
 21
-7.59231563063031
 31
0.0
  0
LINE
  5
6E
330
1F
100
AcDbEntity
  8
0
  6
Continuous
 62
     7
100
AcDbLine
 10
39.3812002399842
 20
-7.59231563063031
 30
0.0
 11
7.8812002399842
 21
-7.59231563063031
 31
0.0
  0
LINE
  5
6F
330
1F
100
AcDbEntity
  8
0
  6
Continuous
 62
     7
100
AcDbLine
 10
7.8812002399842
 20
-7.59231563063031
 30
0.0
 11
7.8812002399842
 21
-19.7923156306303
 31
0.0
  0
LINE
  5
70
330
1F
100
AcDbEntity
  8
0
  6
Continuous
 62
     7
100
AcDbLine
 10
40.8812002399842
 20
-7.59231563063031
 30
0.0
 11
54.13392223998422
 21
-7.59231563063031
 31
0.0
  0
LINE
  5
71
330
1F
100
AcDbEntity
  8
0
  6
Continuous
 62
     7
100
AcDbLine
 10
54.13392223998422
 20
-7.59231563063031
 30
0.0
 11
54.13392223998422
 21
-19.7923156306303
 31
0.0
  0
LINE
  5
72
330
1F
100
AcDbEntity
  8
0
  6
Continuous
 62
     7
100
AcDbLine
 10
54.13392223998422
 20
-19.7923156306303
 30
0.0
 11
40.8812002399842
 21
-19.7923156306303
 31
0.0
  0
LINE
  5
73
330
1F
100
AcDbEntity
  8
0
  6
Continuous
 62
     7
100
AcDbLine
 10
40.8812002399842
 20
-19.7923156306303
 30
0.0
 11
40.8812002399842
 21
-7.59231563063031
 31
0.0
  0
LINE
  5
74
330
1F
100
AcDbEntity
  8
0
  6
Continuous
 62
     7
100
AcDbLine
 10
75.47148223998421
 20
-20.7666276306303
 30
0.0
 11
77.13120023998421
 21
-7.59231563063031
 31
0.0
  0
LINE
  5
75
330
1F
100
AcDbEntity
  8
0
  6
Continuous
 62
     7
100
AcDbLine
 10
77.13120023998421
 20
-7.59231563063031
 30
0.0
 11
75.44103223998421
 21
-9.09231563063031
 31
0.0
  0
LINE
  5
76
330
1F
100
AcDbEntity
  8
0
  6
Continuous
 62
     7
100
AcDbLine
 10
75.44103223998421
 20
-9.09231563063031
 30
0.0
 11
73.19103223998421
 21
-9.09231563063031
 31
0.0
  0
LINE
  5
77
330
1F
100
AcDbEntity
  8
0
  6
Continuous
 62
     7
100
AcDbLine
 10
73.19103223998421
 20
-9.09231563063031
 30
0.0
 11
73.19103223998421
 21
-10.59231563063031
 31
0.0
  0
LINE
  5
78
330
1F
100
AcDbEntity
  8
0
  6
Continuous
 62
     7
100
AcDbLine
 10
73.19103223998421
 20
-10.59231563063031
 30
0.0
 11
74.44103223998421
 21
-10.59231563063031
 31
0.0
  0
LINE
  5
79
330
1F
100
AcDbEntity
  8
0
  6
Continuous
 62
     7
100
AcDbLine
 10
74.44103223998421
 20
-10.59231563063031
 30
0.0
 11
74.44103223998421
 21
-12.59231563063031
 31
0.0
  0
LINE
  5
7A
330
1F
100
AcDbEntity
  8
0
  6
Continuous
 62
     7
100
AcDbLine
 10
73.94103223998421
 20
-13.09231563063031
 30
0.0
 11
70.13120023998421
 21
-13.09231563063031
 31
0.0
  0
LINE
  5
7B
330
1F
100
AcDbEntity
  8
0
  6
Continuous
 62
     7
100
AcDbLine
 10
69.63120023998421
 20
-12.59231563063031
 30
0.0
 11
69.63120023998421
 21
-10.59231563063031
 31
0.0
  0
LINE
  5
7C
330
1F
100
AcDbEntity
  8
0
  6
Continuous
 62
     7
100
AcDbLine
 10
69.63120023998421
 20
-10.59231563063031
 30
0.0
 11
70.85120023998421
 21
-10.59231563063031
 31
0.0
  0
LINE
  5
7D
330
1F
100
AcDbEntity
  8
0
  6
Continuous
 62
     7
100
AcDbLine
 10
70.85120023998421
 20
-10.59231563063031
 30
0.0
 11
70.85120023998421
 21
-9.09231563063031
 31
0.0
  0
LINE
  5
7E
330
1F
100
AcDbEntity
  8
0
  6
Continuous
 62
     7
100
AcDbLine
 10
70.85120023998421
 20
-9.09231563063031
 30
0.0
 11
68.63120023998421
 21
-9.09231563063031
 31
0.0
  0
LINE
  5
7F
330
1F
100
AcDbEntity
  8
0
  6
Continuous
 62
     7
100
AcDbLine
 10
68.63120023998421
 20
-9.09231563063031
 30
0.0
 11
67.13120023998421
 21
-7.59231563063031
 31
0.0
  0
LINE
  5
80
330
1F
100
AcDbEntity
  8
0
  6
Continuous
 62
     7
100
AcDbLine
 10
67.13120023998421
 20
-7.59231563063031
 30
0.0
 11
62.3312002399842
 21
-7.59231563063031
 31
0.0
  0
LINE
  5
81
330
1F
100
AcDbEntity
  8
0
  6
Continuous
 62
     7
100
AcDbLine
 10
62.3312002399842
 20
-7.59231563063031
 30
0.0
 11
61.13120023998421
 21
-6.39231563063032
 31
0.0
  0
LINE
  5
82
330
1F
100
AcDbEntity
  8
0
  6
Continuous
 62
     7
100
AcDbLine
 10
61.13120023998421
 20
-6.39231563063032
 30
0.0
 11
60.13120023998421
 21
-6.39231563063032
 31
0.0
  0
LINE
  5
83
330
1F
100
AcDbEntity
  8
0
  6
Continuous
 62
     7
100
AcDbLine
 10
60.13120023998421
 20
-6.39231563063032
 30
0.0
 11
60.13120023998421
 21
-7.12911763063032
 31
0.0
  0
LINE
  5
84
330
1F
100
AcDbEntity
  8
0
  6
Continuous
 62
     7
100
AcDbLine
 10
60.13120023998421
 20
-7.12911763063032
 30
0.0
 11
57.13120023998421
 21
-8.59231563063031
 31
0.0
  0
LINE
  5
85
330
1F
100
AcDbEntity
  8
0
  6
Continuous
 62
     7
100
AcDbLine
 10
57.13120023998421
 20
-8.59231563063031
 30
0.0
 11
57.13120023998421
 21
23.90634036936967
 31
0.0
  0
LINE
  5
86
330
1F
100
AcDbEntity
  8
0
  6
Continuous
 62
     7
100
AcDbLine
 10
57.13120023998421
 20
23.90634036936967
 30
0.0
 11
59.13120023998421
 21
23.40768436936969
 31
0.0
  0
LINE
  5
87
330
1F
100
AcDbEntity
  8
0
  6
Continuous
 62
     7
100
AcDbLine
 10
59.13120023998421
 20
23.40768436936969
 30
0.0
 11
59.13120023998421
 21
22.40768436936969
 31
0.0
  0
LINE
  5
88
330
1F
100
AcDbEntity
  8
0
  6
Continuous
 62
     7
100
AcDbLine
 10
59.13120023998421
 20
22.40768436936969
 30
0.0
 11
60.13120023998421
 21
22.40768436936969
 31
0.0
  0
LINE
  5
89
330
1F
100
AcDbEntity
  8
0
  6
Continuous
 62
     7
100
AcDbLine
 10
60.13120023998421
 20
22.40768436936969
 30
0.0
 11
60.13120023998421
 21
23.40768436936969
 31
0.0
  0
LINE
  5
8A
330
1F
100
AcDbEntity
  8
0
  6
Continuous
 62
     7
100
AcDbLine
 10
60.13120023998421
 20
23.40768436936969
 30
0.0
 11
56.13120023998421
 21
27.40768436936969
 31
0.0
  0
LINE
  5
8B
330
1F
100
AcDbEntity
  8
0
  6
Continuous
 62
     7
100
AcDbLine
 10
56.13120023998421
 20
27.40768436936969
 30
0.0
 11
55.13120023998421
 21
27.40768436936969
 31
0.0
  0
LINE
  5
8C
330
1F
100
AcDbEntity
  8
0
  6
Continuous
 62
     7
100
AcDbLine
 10
54.5219312399842
 20
26.4871793693697
 30
0.0
 11
51.63120023998421
 21
25.26013636936969
 31
0.0
  0
LINE
  5
8D
330
1F
100
AcDbEntity
  8
0
  6
Continuous
 62
     7
100
AcDbLine
 10
51.63120023998421
 20
25.26013636936969
 30
0.0
 11
51.63120023998421
 21
34.60768436936968
 31
0.0
  0
LINE
  5
8E
330
1F
100
AcDbEntity
  8
0
  6
Continuous
 62
     7
100
AcDbLine
 10
51.63120023998421
 20
34.60768436936968
 30
0.0
 11
56.43120023998419
 21
34.60768436936968
 31
0.0
  0
LINE
  5
8F
330
1F
100
AcDbEntity
  8
0
  6
Continuous
 62
     7
100
AcDbLine
 10
56.43120023998419
 20
34.60768436936968
 30
0.0
 11
59.13120023998421
 21
31.90768436936969
 31
0.0
  0
LINE
  5
90
330
1F
100
AcDbEntity
  8
0
  6
Continuous
 62
     7
100
AcDbLine
 10
59.13120023998421
 20
31.90768436936969
 30
0.0
 11
60.13120023998421
 21
31.90768436936969
 31
0.0
  0
LINE
  5
91
330
1F
100
AcDbEntity
  8
0
  6
Continuous
 62
     7
100
AcDbLine
 10
60.13120023998421
 20
31.90768436936969
 30
0.0
 11
60.13120023998421
 21
37.40768436936969
 31
0.0
  0
LINE
  5
92
330
1F
100
AcDbEntity
  8
0
  6
Continuous
 62
     7
100
AcDbLine
 10
60.13120023998421
 20
37.40768436936969
 30
0.0
 11
-12.8687997600158
 21
37.40768436936969
 31
0.0
  0
LINE
  5
93
330
1F
100
AcDbEntity
  8
0
  6
Continuous
 62
     7
100
AcDbLine
 10
-12.8687997600158
 20
37.40768436936969
 30
0.0
 11
-12.8687997600158
 21
31.90768436936969
 31
0.0
  0
LINE
  5
94
330
1F
100
AcDbEntity
  8
0
  6
Continuous
 62
     7
100
AcDbLine
 10
-12.8687997600158
 20
31.90768436936969
 30
0.0
 11
-11.8687997600158
 21
31.90768436936969
 31
0.0
  0
LINE
  5
95
330
1F
100
AcDbEntity
  8
0
  6
Continuous
 62
     7
100
AcDbLine
 10
-11.8687997600158
 20
31.90768436936969
 30
0.0
 11
-9.1687997600158
 21
34.60768436936968
 31
0.0
  0
LINE
  5
96
330
1F
100
AcDbEntity
  8
0
  6
Continuous
 62
     7
100
AcDbLine
 10
-9.1687997600158
 20
34.60768436936968
 30
0.0
 11
-4.3687997600158
 21
34.60768436936968
 31
0.0
  0
LINE
  5
97
330
1F
100
AcDbEntity
  8
0
  6
Continuous
 62
     7
100
AcDbLine
 10
-4.3687997600158
 20
34.60768436936968
 30
0.0
 11
-4.3687997600158
 21
25.26013636936969
 31
0.0
  0
LINE
  5
98
330
1F
100
AcDbEntity
  8
0
  6
Continuous
 62
     7
100
AcDbLine
 10
-4.3687997600158
 20
25.26013636936969
 30
0.0
 11
-7.25953076001579
 21
26.4871793693697
 31
0.0
  0
LINE
  5
99
330
1F
100
AcDbEntity
  8
0
  6
Continuous
 62
     7
100
AcDbLine
 10
-7.8687997600158
 20
27.40768436936969
 30
0.0
 11
-8.8687997600158
 21
27.40768436936969
 31
0.0
  0
LINE
  5
9A
330
1F
100
AcDbEntity
  8
0
  6
Continuous
 62
     7
100
AcDbLine
 10
-8.8687997600158
 20
27.40768436936969
 30
0.0
 11
-12.8687997600158
 21
23.40768436936969
 31
0.0
  0
LINE
  5
9B
330
1F
100
AcDbEntity
  8
0
  6
Continuous
 62
     7
100
AcDbLine
 10
-12.8687997600158
 20
23.40768436936969
 30
0.0
 11
-12.8687997600158
 21
22.40768436936969
 31
0.0
  0
LINE
  5
9C
330
1F
100
AcDbEntity
  8
0
  6
Continuous
 62
     7
100
AcDbLine
 10
-12.8687997600158
 20
22.40768436936969
 30
0.0
 11
-11.8687997600158
 21
22.40768436936969
 31
0.0
  0
LINE
  5
9D
330
1F
100
AcDbEntity
  8
0
  6
Continuous
 62
     7
100
AcDbLine
 10
-11.8687997600158
 20
22.40768436936969
 30
0.0
 11
-11.8687997600158
 21
23.40768436936969
 31
0.0
  0
LINE
  5
9E
330
1F
100
AcDbEntity
  8
0
  6
Continuous
 62
     7
100
AcDbLine
 10
-11.8687997600158
 20
23.40768436936969
 30
0.0
 11
-9.8687997600158
 21
23.90634036936967
 31
0.0
  0
LINE
  5
9F
330
1F
100
AcDbEntity
  8
0
  6
Continuous
 62
     7
100
AcDbLine
 10
-9.8687997600158
 20
23.90634036936967
 30
0.0
 11
-9.8687997600158
 21
14.30768436936968
 31
0.0
  0
LINE
  5
A0
330
1F
100
AcDbEntity
  8
0
  6
Continuous
 62
     7
100
AcDbLine
 10
-9.8687997600158
 20
14.30768436936968
 30
0.0
 11
-12.8687997600158
 21
14.30768436936968
 31
0.0
  0
LINE
  5
A1
330
1F
100
AcDbEntity
  8
0
  6
Continuous
 62
     7
100
AcDbLine
 10
-12.8687997600158
 20
14.30768436936968
 30
0.0
 11
-12.8687997600158
 21
11.50768436936968
 31
0.0
  0
LINE
  5
A2
330
1F
100
AcDbEntity
  8
0
  6
Continuous
 62
     7
100
AcDbLine
 10
-12.8687997600158
 20
11.50768436936968
 30
0.0
 11
-10.56879976001579
 21
11.50768436936968
 31
0.0
  0
LINE
  5
A3
330
1F
100
AcDbEntity
  8
0
  6
Continuous
 62
     7
100
AcDbLine
 10
-10.56879976001579
 20
11.50768436936968
 30
0.0
 11
-10.56879976001579
 21
9.75768436936968
 31
0.0
  0
LINE
  5
A4
330
1F
100
AcDbEntity
  8
0
  6
Continuous
 62
     7
100
AcDbLine
 10
-10.56879976001579
 20
9.75768436936968
 30
0.0
 11
-7.8687997600158
 21
9.75768436936968
 31
0.0
  0
LINE
  5
A5
330
1F
100
AcDbEntity
  8
0
  6
Continuous
 62
     7
100
AcDbLine
 10
-7.8687997600158
 20
9.75768436936968
 30
0.0
 11
-7.8687997600158
 21
11.55768436936968
 31
0.0
  0
LINE
  5
A6
330
1F
100
AcDbEntity
  8
0
  6
Continuous
 62
     7
100
AcDbLine
 10
-7.8687997600158
 20
11.55768436936968
 30
0.0
 11
-2.4087997600158
 21
11.55768436936968
 31
0.0
  0
LINE
  5
A7
330
1F
100
AcDbEntity
  8
0
  6
Continuous
 62
     7
100
AcDbLine
 10
-1.8687997600158
 20
11.01768436936969
 30
0.0
 11
-1.8687997600158
 21
3.95768436936969
 31
0.0
  0
LINE
  5
A8
330
1F
100
AcDbEntity
  8
0
  6
Continuous
 62
     7
100
AcDbLine
 10
-1.8687997600158
 20
3.95768436936969
 30
0.0
 11
-1.3687997600158
 21
3.45768436936969
 31
0.0
  0
LINE
  5
A9
330
1F
100
AcDbEntity
  8
0
  6
Continuous
 62
     7
100
AcDbLine
 10
-1.3687997600158
 20
3.45768436936969
 30
0.0
 11
-1.8687997600158
 21
2.95768436936969
 31
0.0
  0
LINE
  5
AA
330
1F
100
AcDbEntity
  8
0
  6
Continuous
 62
     7
100
AcDbLine
 10
-1.8687997600158
 20
2.95768436936969
 30
0.0
 11
-1.8687997600158
 21
-4.10231563063032
 31
0.0
  0
LINE
  5
AB
330
1F
100
AcDbEntity
  8
0
  6
Continuous
 62
     7
100
AcDbLine
 10
-2.4087997600158
 20
-4.64231563063032
 30
0.0
 11
-7.8687997600158
 21
-4.64231563063032
 31
0.0
  0
LINE
  5
AC
330
1F
100
AcDbEntity
  8
0
  6
Continuous
 62
     7
100
AcDbLine
 10
-7.8687997600158
 20
-4.64231563063032
 30
0.0
 11
-7.8687997600158
 21
-2.84231563063031
 31
0.0
  0
LINE
  5
AD
330
1F
100
AcDbEntity
  8
0
  6
Continuous
 62
     7
100
AcDbLine
 10
-7.8687997600158
 20
-2.84231563063031
 30
0.0
 11
-10.56879976001579
 21
-2.84231563063031
 31
0.0
  0
LINE
  5
AE
330
1F
100
AcDbEntity
  8
0
  6
Continuous
 62
     7
100
AcDbLine
 10
-10.56879976001579
 20
-2.84231563063031
 30
0.0
 11
-10.56879976001579
 21
-4.69231563063032
 31
0.0
  0
LINE
  5
AF
330
1F
100
AcDbEntity
  8
0
  6
Continuous
 62
     7
100
AcDbLine
 10
-10.56879976001579
 20
-4.69231563063032
 30
0.0
 11
-12.8687997600158
 21
-4.69231563063032
 31
0.0
  0
LINE
  5
B0
330
1F
100
AcDbEntity
  8
0
  6
Continuous
 62
     7
100
AcDbLine
 10
-12.8687997600158
 20
-4.69231563063032
 30
0.0
 11
-12.8687997600158
 21
-7.59231563063031
 31
0.0
  0
LINE
  5
B1
330
1F
100
AcDbEntity
  8
0
  6
Continuous
 62
     7
100
AcDbLine
 10
-12.8687997600158
 20
-7.59231563063031
 30
0.0
 11
-19.8687997600158
 21
-7.59231563063031
 31
0.0
  0
LINE
  5
B2
330
1F
100
AcDbEntity
  8
0
  6
Continuous
 62
     7
100
AcDbLine
 10
-19.8687997600158
 20
-7.59231563063031
 30
0.0
 11
-21.3687997600158
 21
-9.09231563063031
 31
0.0
  0
LINE
  5
B3
330
1F
100
AcDbEntity
  8
0
  6
Continuous
 62
     7
100
AcDbLine
 10
-21.3687997600158
 20
-9.09231563063031
 30
0.0
 11
-23.5887997600158
 21
-9.09231563063031
 31
0.0
  0
LINE
  5
B4
330
1F
100
AcDbEntity
  8
0
  6
Continuous
 62
     7
100
AcDbLine
 10
-23.5887997600158
 20
-9.09231563063031
 30
0.0
 11
-23.5887997600158
 21
-10.59231563063031
 31
0.0
  0
LINE
  5
B5
330
1F
100
AcDbEntity
  8
0
  6
Continuous
 62
     7
100
AcDbLine
 10
-23.5887997600158
 20
-10.59231563063031
 30
0.0
 11
-22.3687997600158
 21
-10.59231563063031
 31
0.0
  0
LINE
  5
B6
330
1F
100
AcDbEntity
  8
0
  6
Continuous
 62
     7
100
AcDbLine
 10
-22.3687997600158
 20
-10.59231563063031
 30
0.0
 11
-22.3687997600158
 21
-12.59231563063031
 31
0.0
  0
LINE
  5
B7
330
1F
100
AcDbEntity
  8
0
  6
Continuous
 62
     7
100
AcDbLine
 10
-22.8687997600158
 20
-13.09231563063031
 30
0.0
 11
-26.8687997600158
 21
-13.09231563063031
 31
0.0
  0
LINE
  5
B8
330
1F
100
AcDbEntity
  8
0
  6
Continuous
 62
     7
100
AcDbLine
 10
-27.3687997600158
 20
-12.59231563063031
 30
0.0
 11
-27.3687997600158
 21
-10.59231563063031
 31
0.0
  0
LINE
  5
B9
330
1F
100
AcDbEntity
  8
0
  6
Continuous
 62
     7
100
AcDbLine
 10
-27.3687997600158
 20
-10.59231563063031
 30
0.0
 11
-26.1187997600158
 21
-10.59231563063031
 31
0.0
  0
LINE
  5
BA
330
1F
100
AcDbEntity
  8
0
  6
Continuous
 62
     7
100
AcDbLine
 10
-26.1187997600158
 20
-10.59231563063031
 30
0.0
 11
-26.1187997600158
 21
-9.09231563063031
 31
0.0
  0
LINE
  5
BB
330
1F
100
AcDbEntity
  8
0
  6
Continuous
 62
     7
100
AcDbLine
 10
-26.1187997600158
 20
-9.09231563063031
 30
0.0
 11
-28.3687997600158
 21
-9.09231563063031
 31
0.0
  0
LINE
  5
BC
330
1F
100
AcDbEntity
  8
0
  6
Continuous
 62
     7
100
AcDbLine
 10
-28.3687997600158
 20
-9.09231563063031
 30
0.0
 11
-29.8687997600158
 21
-7.59231563063031
 31
0.0
  0
LINE
  5
BD
330
1F
100
AcDbEntity
  8
0
  6
Continuous
 62
     7
100
AcDbLine
 10
-29.8687997600158
 20
-7.59231563063031
 30
0.0
 11
-29.82912848103952
 21
-8.04576042424661
 31
0.0
  0
LINE
  5
BE
330
1F
100
AcDbEntity
  8
0
  6
Continuous
 62
     7
100
AcDbLine
 10
-26.72380745909209
 20
-22.59231563063031
 30
0.0
 11
73.47909223998421
 21
-22.59231563063031
 31
0.0
  0
LINE
  5
BF
330
1F
100
AcDbEntity
  8
0
  6
Continuous
 62
     7
100
AcDbLine
 10
72.7460272399842
 20
-19.7923156306303
 30
0.0
 11
73.1953492399842
 21
-14.65654563063032
 31
0.0
  0
LINE
  5
C0
330
1F
100
AcDbEntity
  8
0
  6
Continuous
 62
     7
100
AcDbLine
 10
73.1953492399842
 20
-14.65654563063032
 30
0.0
 11
68.2804882399842
 21
-14.65654563063032
 31
0.0
  0
LINE
  5
C1
330
1F
100
AcDbEntity
  8
0
  6
Continuous
 62
     7
100
AcDbLine
 10
67.2804882399842
 20
-13.65654563063032
 30
0.0
 11
67.2804882399842
 21
-11.56039263063032
 31
0.0
  0
LINE
  5
C2
330
1F
100
AcDbEntity
  8
0
  6
Continuous
 62
     7
100
AcDbLine
 10
67.2804882399842
 20
-11.56039263063032
 30
0.0
 11
66.11241223998421
 21
-10.39231563063032
 31
0.0
  0
LINE
  5
C3
330
1F
100
AcDbEntity
  8
0
  6
Continuous
 62
     7
100
AcDbLine
 10
66.11241223998421
 20
-10.39231563063032
 30
0.0
 11
60.57868323998422
 21
-10.39231563063032
 31
0.0
  0
LINE
  5
C4
330
1F
100
AcDbEntity
  8
0
  6
Continuous
 62
     7
100
AcDbLine
 10
55.63392223998422
 20
-10.95874763063031
 30
0.0
 11
55.63392223998422
 21
-19.7923156306303
 31
0.0
  0
LINE
  5
C5
330
1F
100
AcDbEntity
  8
0
  6
Continuous
 62
     7
100
AcDbLine
 10
55.63392223998422
 20
-19.7923156306303
 30
0.0
 11
72.7460272399842
 21
-19.7923156306303
 31
0.0
  0
LINE
  5
C6
102
{ACAD_REACTORS
330
183
330
183
102
}
330
1F
100
AcDbEntity
  8
0
  6
Continuous
 62
     7
100
AcDbLine
 10
-60.7968347600158
 20
12.95285536936969
 30
0.0
 11
-35.1968347600158
 21
12.95285536936969
 31
0.0
  0
LINE
  5
C7
102
{ACAD_REACTORS
330
183
330
183
102
}
330
1F
100
AcDbEntity
  8
0
  6
Continuous
 62
     7
100
AcDbLine
 10
-34.1968347600158
 20
13.95285536936969
 30
0.0
 11
-34.1968347600158
 21
16.75285536936968
 31
0.0
  0
LINE
  5
C8
102
{ACAD_REACTORS
330
183
330
183
102
}
330
1F
100
AcDbEntity
  8
0
  6
Continuous
 62
     7
100
AcDbLine
 10
-34.1968347600158
 20
16.75285536936968
 30
0.0
 11
-32.9968347600158
 21
16.75285536936968
 31
0.0
  0
LINE
  5
C9
102
{ACAD_REACTORS
330
183
330
183
102
}
330
1F
100
AcDbEntity
  8
0
  6
Continuous
 62
     7
100
AcDbLine
 10
-32.9968347600158
 20
16.75285536936968
 30
0.0
 11
-32.9968347600158
 21
13.75285536936968
 31
0.0
  0
LINE
  5
CA
102
{ACAD_REACTORS
330
183
330
183
102
}
330
1F
100
AcDbEntity
  8
0
  6
Continuous
 62
     7
100
AcDbLine
 10
-34.9968347600158
 20
11.75285536936968
 30
0.0
 11
-60.9968347600158
 21
11.75285536936968
 31
0.0
  0
LINE
  5
CB
102
{ACAD_REACTORS
330
183
330
183
102
}
330
1F
100
AcDbEntity
  8
0
  6
Continuous
 62
     7
100
AcDbLine
 10
-62.9968347600158
 20
13.75285536936968
 30
0.0
 11
-62.9968347600158
 21
34.75285536936968
 31
0.0
  0
LINE
  5
CC
102
{ACAD_REACTORS
330
183
330
183
102
}
330
1F
100
AcDbEntity
  8
0
  6
Continuous
 62
     7
100
AcDbLine
 10
-60.9968347600158
 20
36.75285536936968
 30
0.0
 11
-34.9968347600158
 21
36.75285536936968
 31
0.0
  0
LINE
  5
CD
102
{ACAD_REACTORS
330
183
330
183
102
}
330
1F
100
AcDbEntity
  8
0
  6
Continuous
 62
     7
100
AcDbLine
 10
-32.9968347600158
 20
34.75285536936968
 30
0.0
 11
-32.9968347600158
 21
17.25285536936968
 31
0.0
  0
LINE
  5
CE
102
{ACAD_REACTORS
330
183
330
183
102
}
330
1F
100
AcDbEntity
  8
0
  6
Continuous
 62
     7
100
AcDbLine
 10
-32.9968347600158
 20
17.25285536936968
 30
0.0
 11
-34.1968347600158
 21
17.25285536936968
 31
0.0
  0
LINE
  5
CF
102
{ACAD_REACTORS
330
183
330
183
102
}
330
1F
100
AcDbEntity
  8
0
  6
Continuous
 62
     7
100
AcDbLine
 10
-34.1968347600158
 20
17.25285536936968
 30
0.0
 11
-34.1968347600158
 21
34.5528553693697
 31
0.0
  0
LINE
  5
D0
102
{ACAD_REACTORS
330
183
330
183
102
}
330
1F
100
AcDbEntity
  8
0
  6
Continuous
 62
     7
100
AcDbLine
 10
-35.1968347600158
 20
35.5528553693697
 30
0.0
 11
-60.7968347600158
 21
35.5528553693697
 31
0.0
  0
LINE
  5
D1
102
{ACAD_REACTORS
330
183
330
183
102
}
330
1F
100
AcDbEntity
  8
0
  6
Continuous
 62
     7
100
AcDbLine
 10
-61.7968347600158
 20
34.5528553693697
 30
0.0
 11
-61.7968347600158
 21
13.95285536936969
 31
0.0
  0
LINE
  5
D2
330
1F
100
AcDbEntity
  8
0
  6
Continuous
 62
     7
100
AcDbLine
 10
-63.5708417600158
 20
40.70450536936968
 30
0.0
 11
-63.1708417600158
 21
40.70450536936968
 31
0.0
  0
LINE
  5
D3
330
1F
100
AcDbEntity
  8
0
  6
Continuous
 62
     7
100
AcDbLine
 10
-62.1708417600158
 20
41.70450536936968
 30
0.0
 11
-62.1708417600158
 21
51.40240436936969
 31
0.0
  0
LINE
  5
D4
330
1F
100
AcDbEntity
  8
0
  6
Continuous
 62
     7
100
AcDbLine
 10
-62.1708417600158
 20
51.40240436936969
 30
0.0
 11
-34.32827776001579
 21
51.40240436936969
 31
0.0
  0
LINE
  5
D5
330
1F
100
AcDbEntity
  8
0
  6
Continuous
 62
     7
100
AcDbLine
 10
-34.32827776001579
 20
51.40240436936969
 30
0.0
 11
-31.7744867600158
 21
39.40240436936969
 31
0.0
  0
LINE
  5
D6
330
1F
100
AcDbEntity
  8
0
  6
Continuous
 62
     7
100
AcDbLine
 10
-31.7744867600158
 20
39.40240436936969
 30
0.0
 11
-63.6708417600158
 21
39.40240436936969
 31
0.0
  0
LINE
  5
D7
330
1F
100
AcDbEntity
  8
0
  6
Continuous
 62
     7
100
AcDbLine
 10
-63.6708417600158
 20
39.40240436936969
 30
0.0
 11
-63.6708417600158
 21
40.70450536936968
 31
0.0
  0
LINE
  5
D8
330
1F
100
AcDbEntity
  8
0
  6
Continuous
 62
     7
100
AcDbLine
 10
-23.3708417600158
 20
-5.59759563063031
 30
0.0
 11
-73.3708417600158
 21
-5.59759563063031
 31
0.0
  0
LINE
  5
D9
330
1F
100
AcDbEntity
  8
0
  6
Continuous
 62
     7
100
AcDbLine
 10
-73.3708417600158
 20
-5.59759563063031
 30
0.0
 11
-73.3708417600158
 21
-0.09759563063031
 31
0.0
  0
LINE
  5
DA
330
1F
100
AcDbEntity
  8
0
  6
Continuous
 62
     7
100
AcDbLine
 10
-73.3708417600158
 20
-0.09759563063031
 30
0.0
 11
-72.3708417600158
 21
-0.09759563063031
 31
0.0
  0
LINE
  5
DB
330
1F
100
AcDbEntity
  8
0
  6
Continuous
 62
     7
100
AcDbLine
 10
-72.3708417600158
 20
-0.09759563063031
 30
0.0
 11
-69.8708417600158
 21
-2.59759563063031
 31
0.0
  0
LINE
  5
DC
330
1F
100
AcDbEntity
  8
0
  6
Continuous
 62
     7
100
AcDbLine
 10
-69.8708417600158
 20
-2.59759563063031
 30
0.0
 11
-64.8708417600158
 21
-2.59759563063031
 31
0.0
  0
LINE
  5
DD
330
1F
100
AcDbEntity
  8
0
  6
Continuous
 62
     7
100
AcDbLine
 10
-64.8708417600158
 20
-2.59759563063031
 30
0.0
 11
-64.8708417600158
 21
6.52924236936968
 31
0.0
  0
LINE
  5
DE
330
1F
100
AcDbEntity
  8
0
  6
Continuous
 62
     7
100
AcDbLine
 10
-64.8708417600158
 20
6.52924236936968
 30
0.0
 11
-68.8708417600158
 21
4.40240436936969
 31
0.0
  0
LINE
  5
DF
330
1F
100
AcDbEntity
  8
0
  6
Continuous
 62
     7
100
AcDbLine
 10
-68.8708417600158
 20
4.40240436936969
 30
0.0
 11
-69.8708417600158
 21
4.40240436936969
 31
0.0
  0
LINE
  5
E0
330
1F
100
AcDbEntity
  8
0
  6
Continuous
 62
     7
100
AcDbLine
 10
-69.8708417600158
 20
4.40240436936969
 30
0.0
 11
-73.3708417600158
 21
6.40240436936969
 31
0.0
  0
LINE
  5
E1
330
1F
100
AcDbEntity
  8
0
  6
Continuous
 62
     7
100
AcDbLine
 10
-73.3708417600158
 20
6.40240436936969
 30
0.0
 11
-73.3708417600158
 21
8.40240436936969
 31
0.0
  0
LINE
  5
E2
330
1F
100
AcDbEntity
  8
0
  6
Continuous
 62
     7
100
AcDbLine
 10
-73.3708417600158
 20
8.40240436936969
 30
0.0
 11
-71.6708417600158
 21
9.40240436936969
 31
0.0
  0
LINE
  5
E3
330
1F
100
AcDbEntity
  8
0
  6
Continuous
 62
     7
100
AcDbLine
 10
-71.6708417600158
 20
9.40240436936969
 30
0.0
 11
-70.3708417600158
 21
9.40240436936969
 31
0.0
  0
LINE
  5
E4
330
1F
100
AcDbEntity
  8
0
  6
Continuous
 62
     7
100
AcDbLine
 10
-70.3708417600158
 20
9.40240436936969
 30
0.0
 11
-70.3708417600158
 21
6.92863436936969
 31
0.0
  0
LINE
  5
E5
330
1F
100
AcDbEntity
  8
0
  6
Continuous
 62
     7
100
AcDbLine
 10
-69.6361057600158
 20
6.48716036936969
 30
0.0
 11
-66.3708417600158
 21
8.22333236936969
 31
0.0
  0
LINE
  5
E6
330
1F
100
AcDbEntity
  8
0
  6
Continuous
 62
     7
100
AcDbLine
 10
-66.3708417600158
 20
8.22333236936969
 30
0.0
 11
-66.3708417600158
 21
40.58147636936968
 31
0.0
  0
LINE
  5
E7
330
1F
100
AcDbEntity
  8
0
  6
Continuous
 62
     7
100
AcDbLine
 10
-66.3708417600158
 20
40.58147636936968
 30
0.0
 11
-69.6361057600158
 21
42.31764836936969
 31
0.0
  0
LINE
  5
E8
330
1F
100
AcDbEntity
  8
0
  6
Continuous
 62
     7
100
AcDbLine
 10
-70.3708417600158
 20
41.87617436936969
 30
0.0
 11
-70.3708417600158
 21
39.40240436936969
 31
0.0
  0
LINE
  5
E9
330
1F
100
AcDbEntity
  8
0
  6
Continuous
 62
     7
100
AcDbLine
 10
-70.3708417600158
 20
39.40240436936969
 30
0.0
 11
-71.6708417600158
 21
39.40240436936969
 31
0.0
  0
LINE
  5
EA
330
1F
100
AcDbEntity
  8
0
  6
Continuous
 62
     7
100
AcDbLine
 10
-71.6708417600158
 20
39.40240436936969
 30
0.0
 11
-73.3708417600158
 21
40.40240436936969
 31
0.0
  0
LINE
  5
EB
330
1F
100
AcDbEntity
  8
0
  6
Continuous
 62
     7
100
AcDbLine
 10
-73.3708417600158
 20
40.40240436936969
 30
0.0
 11
-73.3708417600158
 21
42.40240436936969
 31
0.0
  0
LINE
  5
EC
330
1F
100
AcDbEntity
  8
0
  6
Continuous
 62
     7
100
AcDbLine
 10
-73.3708417600158
 20
42.40240436936969
 30
0.0
 11
-69.8708417600158
 21
44.40240436936969
 31
0.0
  0
LINE
  5
ED
330
1F
100
AcDbEntity
  8
0
  6
Continuous
 62
     7
100
AcDbLine
 10
-69.8708417600158
 20
44.40240436936969
 30
0.0
 11
-68.8708417600158
 21
44.40240436936969
 31
0.0
  0
LINE
  5
EE
330
1F
100
AcDbEntity
  8
0
  6
Continuous
 62
     7
100
AcDbLine
 10
-68.8708417600158
 20
44.40240436936969
 30
0.0
 11
-64.8708417600158
 21
42.2755663693697
 31
0.0
  0
LINE
  5
EF
330
1F
100
AcDbEntity
  8
0
  6
Continuous
 62
     7
100
AcDbLine
 10
-64.8708417600158
 20
42.2755663693697
 30
0.0
 11
-64.8708417600158
 21
51.40240436936969
 31
0.0
  0
LINE
  5
F0
330
1F
100
AcDbEntity
  8
0
  6
Continuous
 62
     7
100
AcDbLine
 10
-64.8708417600158
 20
51.40240436936969
 30
0.0
 11
-69.8708417600158
 21
51.40240436936969
 31
0.0
  0
LINE
  5
F1
330
1F
100
AcDbEntity
  8
0
  6
Continuous
 62
     7
100
AcDbLine
 10
-69.8708417600158
 20
51.40240436936969
 30
0.0
 11
-72.3708417600158
 21
48.90240436936969
 31
0.0
  0
LINE
  5
F2
330
1F
100
AcDbEntity
  8
0
  6
Continuous
 62
     7
100
AcDbLine
 10
-72.3708417600158
 20
48.90240436936969
 30
0.0
 11
-73.3708417600158
 21
48.90240436936969
 31
0.0
  0
LINE
  5
F3
330
1F
100
AcDbEntity
  8
0
  6
Continuous
 62
     7
100
AcDbLine
 10
-73.3708417600158
 20
48.90240436936969
 30
0.0
 11
-73.3708417600158
 21
54.40240436936969
 31
0.0
  0
LINE
  5
F4
330
1F
100
AcDbEntity
  8
0
  6
Continuous
 62
     7
100
AcDbLine
 10
-73.3708417600158
 20
54.40240436936969
 30
0.0
 11
-9.51583376001579
 21
54.40240436936969
 31
0.0
  0
LINE
  5
F5
330
1F
100
AcDbEntity
  8
0
  6
Continuous
 62
     7
100
AcDbLine
 10
-7.52344476001579
 20
52.57671636936968
 30
0.0
 11
-6.3737097600158
 21
39.43518936936968
 31
0.0
  0
LINE
  5
F6
330
1F
100
AcDbEntity
  8
0
  6
Continuous
 62
     7
100
AcDbLine
 10
-6.3737097600158
 20
39.43518936936968
 30
0.0
 11
-7.8409247600158
 21
40.90240436936969
 31
0.0
  0
LINE
  5
F7
330
1F
100
AcDbEntity
  8
0
  6
Continuous
 62
     7
100
AcDbLine
 10
-7.8409247600158
 20
40.90240436936969
 30
0.0
 11
-10.2092377600158
 21
40.90240436936969
 31
0.0
  0
LINE
  5
F8
330
1F
100
AcDbEntity
  8
0
  6
Continuous
 62
     7
100
AcDbLine
 10
-10.2092377600158
 20
40.90240436936969
 30
0.0
 11
-10.2092377600158
 21
42.42633936936969
 31
0.0
  0
LINE
  5
F9
330
1F
100
AcDbEntity
  8
0
  6
Continuous
 62
     7
100
AcDbLine
 10
-10.2092377600158
 20
42.42633936936969
 30
0.0
 11
-8.8153137600158
 21
42.42633936936969
 31
0.0
  0
LINE
  5
FA
330
1F
100
AcDbEntity
  8
0
  6
Continuous
 62
     7
100
AcDbLine
 10
-14.31440476001581
 20
42.42633936936969
 30
0.0
 11
-12.9092377600158
 21
42.42633936936969
 31
0.0
  0
LINE
  5
FB
330
1F
100
AcDbEntity
  8
0
  6
Continuous
 62
     7
100
AcDbLine
 10
-12.9092377600158
 20
42.42633936936969
 30
0.0
 11
-12.9092377600158
 21
40.92633936936969
 31
0.0
  0
LINE
  5
FC
330
1F
100
AcDbEntity
  8
0
  6
Continuous
 62
     7
100
AcDbLine
 10
-12.9092377600158
 20
40.92633936936969
 30
0.0
 11
-15.0469067600158
 21
40.92633936936969
 31
0.0
  0
LINE
  5
FD
330
1F
100
AcDbEntity
  8
0
  6
Continuous
 62
     7
100
AcDbLine
 10
-15.0469067600158
 20
40.92633936936969
 30
0.0
 11
-16.5708417600158
 21
39.40240436936969
 31
0.0
  0
LINE
  5
FE
330
1F
100
AcDbEntity
  8
0
  6
Continuous
 62
     7
100
AcDbLine
 10
-16.5708417600158
 20
39.40240436936969
 30
0.0
 11
-20.8623817600158
 21
39.40240436936969
 31
0.0
  0
LINE
  5
FF
330
1F
100
AcDbEntity
  8
0
  6
Continuous
 62
     7
100
AcDbLine
 10
-20.8623817600158
 20
39.40240436936969
 30
0.0
 11
-22.3623817600158
 21
37.90240436936969
 31
0.0
  0
LINE
  5
100
330
1F
100
AcDbEntity
  8
0
  6
Continuous
 62
     7
100
AcDbLine
 10
-22.3623817600158
 20
37.90240436936969
 30
0.0
 11
-23.3648597600158
 21
37.90240436936969
 31
0.0
  0
LINE
  5
101
330
1F
100
AcDbEntity
  8
0
  6
Continuous
 62
     7
100
AcDbLine
 10
-23.3648597600158
 20
37.90240436936969
 30
0.0
 11
-23.3648597600158
 21
39.39615636936969
 31
0.0
  0
LINE
  5
102
330
1F
100
AcDbEntity
  8
0
  6
Continuous
 62
     7
100
AcDbLine
 10
-23.3648597600158
 20
39.39615636936969
 30
0.0
 11
-24.5519297600158
 21
40.63598036936969
 31
0.0
  0
LINE
  5
103
330
1F
100
AcDbEntity
  8
0
  6
Continuous
 62
     7
100
AcDbLine
 10
-28.6279147600158
 20
38.10337536936967
 30
0.0
 11
-26.3708417600158
 21
29.40240436936969
 31
0.0
  0
LINE
  5
104
330
1F
100
AcDbEntity
  8
0
  6
Continuous
 62
     7
100
AcDbLine
 10
-26.3708417600158
 20
29.40240436936969
 30
0.0
 11
-26.3708417600158
 21
7.94318736936968
 31
0.0
  0
LINE
  5
105
330
1F
100
AcDbEntity
  8
0
  6
Continuous
 62
     7
100
AcDbLine
 10
-26.3708417600158
 20
7.94318736936968
 30
0.0
 11
-24.3708417600158
 21
8.40240436936969
 31
0.0
  0
LINE
  5
106
330
1F
100
AcDbEntity
  8
0
  6
Continuous
 62
     7
100
AcDbLine
 10
-24.3708417600158
 20
8.40240436936969
 30
0.0
 11
-24.3708417600158
 21
9.40240436936969
 31
0.0
  0
LINE
  5
107
330
1F
100
AcDbEntity
  8
0
  6
Continuous
 62
     7
100
AcDbLine
 10
-24.3708417600158
 20
9.40240436936969
 30
0.0
 11
-23.3708417600158
 21
9.40240436936969
 31
0.0
  0
LINE
  5
108
330
1F
100
AcDbEntity
  8
0
  6
Continuous
 62
     7
100
AcDbLine
 10
-23.3708417600158
 20
9.40240436936969
 30
0.0
 11
-23.3708417600158
 21
8.40240436936969
 31
0.0
  0
LINE
  5
109
330
1F
100
AcDbEntity
  8
0
  6
Continuous
 62
     7
100
AcDbLine
 10
-23.3708417600158
 20
8.40240436936969
 30
0.0
 11
-27.3708417600158
 21
4.40240436936969
 31
0.0
  0
LINE
  5
10A
330
1F
100
AcDbEntity
  8
0
  6
Continuous
 62
     7
100
AcDbLine
 10
-27.3708417600158
 20
4.40240436936969
 30
0.0
 11
-27.8318917600158
 21
4.40240436936969
 31
0.0
  0
LINE
  5
10B
330
1F
100
AcDbEntity
  8
0
  6
Continuous
 62
     7
100
AcDbLine
 10
-27.8318917600158
 20
4.40240436936969
 30
0.0
 11
-31.8708417600158
 21
6.54995236936969
 31
0.0
  0
LINE
  5
10C
330
1F
100
AcDbEntity
  8
0
  6
Continuous
 62
     7
100
AcDbLine
 10
-31.8708417600158
 20
6.54995236936969
 30
0.0
 11
-31.8708417600158
 21
-2.59759563063031
 31
0.0
  0
LINE
  5
10D
330
1F
100
AcDbEntity
  8
0
  6
Continuous
 62
     7
100
AcDbLine
 10
-31.8708417600158
 20
-2.59759563063031
 30
0.0
 11
-26.8708417600158
 21
-2.59759563063031
 31
0.0
  0
LINE
  5
10E
330
1F
100
AcDbEntity
  8
0
  6
Continuous
 62
     7
100
AcDbLine
 10
-26.8708417600158
 20
-2.59759563063031
 30
0.0
 11
-24.3708417600158
 21
-0.09759563063031
 31
0.0
  0
LINE
  5
10F
330
1F
100
AcDbEntity
  8
0
  6
Continuous
 62
     7
100
AcDbLine
 10
-24.3708417600158
 20
-0.09759563063031
 30
0.0
 11
-23.3708417600158
 21
-0.09759563063031
 31
0.0
  0
LINE
  5
110
330
1F
100
AcDbEntity
  8
0
  6
Continuous
 62
     7
100
AcDbLine
 10
-23.3708417600158
 20
-0.09759563063031
 30
0.0
 11
-23.3708417600158
 21
-5.59759563063031
 31
0.0
  0
LINE
  5
111
330
1F
100
AcDbEntity
  8
0
  6
Continuous
 62
     7
100
AcDbLine
 10
-23.3708417600158
 20
-5.59759563063031
 30
0.0
 11
-41.1260627600158
 21
-5.59759563063031
 31
0.0
  0
LINE
  5
112
330
1F
100
AcDbEntity
  8
AKONTUR
  6
Continuous
 62
     7
100
AcDbLine
 10
-10.4321647600158
 20
51.40240436936969
 30
0.0
 11
-32.7946867600158
 21
51.40240436936969
 31
0.0
  0
LINE
  5
113
330
1F
100
AcDbEntity
  8
AKONTUR
  6
Continuous
 62
     7
100
AcDbLine
 10
-32.7946867600158
 20
51.40240436936969
 30
0.0
 11
-30.6768687600158
 21
41.45100236936969
 31
0.0
  0
LINE
  5
114
330
1F
100
AcDbEntity
  8
AKONTUR
  6
Continuous
 62
     7
100
AcDbLine
 10
-22.2247457600158
 20
42.10240436936968
 30
0.0
 11
-17.89570276001579
 21
42.10240436936968
 31
0.0
  0
LINE
  5
115
330
1F
100
AcDbEntity
  8
AKONTUR
  6
Continuous
 62
     7
100
AcDbLine
 10
-17.89570276001579
 20
42.10240436936968
 30
0.0
 11
-16.05359676001579
 21
43.94451036936968
 31
0.0
  0
LINE
  5
116
330
1F
100
AcDbEntity
  8
AKONTUR
  6
Continuous
 62
     7
100
AcDbLine
 10
-10.12484376001579
 20
47.88971336936967
 30
0.0
 11
-10.4321647600158
 21
51.40240436936969
 31
0.0
  0
LINE
  5
117
330
1F
100
AcDbEntity
  8
0
  6
Continuous
 62
     7
100
AcDbLine
 10
-32.7012527600158
 20
16.65240436936969
 30
0.0
 11
-32.7012527600158
 21
15.15240436936969
 31
0.0
  0
LINE
  5
118
330
1F
100
AcDbEntity
  8
0
  6
Continuous
 62
     7
100
AcDbLine
 10
-32.7012527600158
 20
15.15240436936969
 30
0.0
 11
-29.0708417600158
 21
14.46355736936968
 31
0.0
  0
LINE
  5
119
330
1F
100
AcDbEntity
  8
0
  6
Continuous
 62
     7
100
AcDbLine
 10
-29.0708417600158
 20
14.46355736936968
 30
0.0
 11
-29.0708417600158
 21
10.90240436936969
 31
0.0
  0
LINE
  5
11A
330
1F
100
AcDbEntity
  8
0
  6
Continuous
 62
     7
100
AcDbLine
 10
-29.0708417600158
 20
10.90240436936969
 30
0.0
 11
-63.6708417600158
 21
10.90240436936969
 31
0.0
  0
LINE
  5
11B
330
1F
100
AcDbEntity
  8
0
  6
Continuous
 62
     7
100
AcDbLine
 10
-63.6708417600158
 20
10.90240436936969
 30
0.0
 11
-63.6708417600158
 21
37.90240436936969
 31
0.0
  0
LINE
  5
11C
330
1F
100
AcDbEntity
  8
0
  6
Continuous
 62
     7
100
AcDbLine
 10
-63.6708417600158
 20
37.90240436936969
 30
0.0
 11
-31.8114857600158
 21
37.90240436936969
 31
0.0
  0
LINE
  5
11D
330
1F
100
AcDbEntity
  8
0
  6
Continuous
 62
     7
100
AcDbLine
 10
-31.8114857600158
 20
37.90240436936969
 30
0.0
 11
-29.4619067600158
 21
30.26717936936967
 31
0.0
  0
LINE
  5
11E
330
1F
100
AcDbEntity
  8
0
  6
Continuous
 62
     7
100
AcDbLine
 10
-29.4619067600158
 20
30.26717936936967
 30
0.0
 11
-32.7095617600158
 21
29.65240436936969
 31
0.0
  0
LINE
  5
11F
330
1F
100
AcDbEntity
  8
0
  6
Continuous
 62
     7
100
AcDbLine
 10
-32.7095617600158
 20
29.65240436936969
 30
0.0
 11
-32.7095617600158
 21
28.15240436936969
 31
0.0
  0
LINE
  5
120
330
1F
100
AcDbEntity
  8
0
  6
Continuous
 62
     7
100
AcDbLine
 10
-32.7095617600158
 20
28.15240436936969
 30
0.0
 11
-29.0708417600158
 21
27.46360136936968
 31
0.0
  0
LINE
  5
121
330
1F
100
AcDbEntity
  8
0
  6
Continuous
 62
     7
100
AcDbLine
 10
-29.0708417600158
 20
27.46360136936968
 30
0.0
 11
-29.0708417600158
 21
17.34125136936967
 31
0.0
  0
LINE
  5
122
330
1F
100
AcDbEntity
  8
0
  6
Continuous
 62
     7
100
AcDbLine
 10
-29.0708417600158
 20
17.34125136936967
 30
0.0
 11
-32.7012527600158
 21
16.65240436936969
 31
0.0
  0
LINE
  5
123
330
1F
100
AcDbEntity
  8
0
  6
Continuous
 62
     7
100
AcDbLine
 10
-63.6708417600158
 20
8.20240436936969
 30
0.0
 11
-63.6708417600158
 21
9.40240436936969
 31
0.0
  0
LINE
  5
124
330
1F
100
AcDbEntity
  8
0
  6
Continuous
 62
     7
100
AcDbLine
 10
-63.6708417600158
 20
9.40240436936969
 30
0.0
 11
-29.0708417600158
 21
9.40240436936969
 31
0.0
  0
LINE
  5
125
330
1F
100
AcDbEntity
  8
0
  6
Continuous
 62
     7
100
AcDbLine
 10
-29.0708417600158
 20
9.40240436936969
 30
0.0
 11
-29.0708417600158
 21
7.90240436936969
 31
0.0
  0
LINE
  5
126
330
1F
100
AcDbEntity
  8
0
  6
Continuous
 62
     7
100
AcDbLine
 10
-29.0708417600158
 20
7.90240436936969
 30
0.0
 11
-33.5708417600158
 21
7.90240436936969
 31
0.0
  0
LINE
  5
127
330
1F
100
AcDbEntity
  8
0
  6
Continuous
 62
     7
100
AcDbLine
 10
-34.5708417600158
 20
6.90240436936969
 30
0.0
 11
-34.5708417600158
 21
6.13445536936969
 31
0.0
  0
LINE
  5
128
330
1F
100
AcDbEntity
  8
0
  6
Continuous
 62
     7
100
AcDbLine
 10
-34.5708417600158
 20
6.13445536936969
 30
0.0
 11
-37.5708417600158
 21
4.40240436936969
 31
0.0
  0
LINE
  5
129
330
1F
100
AcDbEntity
  8
0
  6
Continuous
 62
     7
100
AcDbLine
 10
-37.5708417600158
 20
4.40240436936969
 30
0.0
 11
-37.5708417600158
 21
3.40240436936969
 31
0.0
  0
LINE
  5
12A
330
1F
100
AcDbEntity
  8
0
  6
Continuous
 62
     7
100
AcDbLine
 10
-37.5708417600158
 20
3.40240436936969
 30
0.0
 11
-34.5708417600158
 21
3.40240436936969
 31
0.0
  0
LINE
  5
12B
330
1F
100
AcDbEntity
  8
0
  6
Continuous
 62
     7
100
AcDbLine
 10
-34.5708417600158
 20
3.40240436936969
 30
0.0
 11
-34.5708417600158
 21
1.40240436936969
 31
0.0
  0
LINE
  5
12C
330
1F
100
AcDbEntity
  8
0
  6
Continuous
 62
     7
100
AcDbLine
 10
-34.5708417600158
 20
1.40240436936969
 30
0.0
 11
-37.5708417600158
 21
1.40240436936969
 31
0.0
  0
LINE
  5
12D
330
1F
100
AcDbEntity
  8
0
  6
Continuous
 62
     7
100
AcDbLine
 10
-37.5708417600158
 20
1.40240436936969
 30
0.0
 11
-37.5708417600158
 21
0.40240436936969
 31
0.0
  0
LINE
  5
12E
330
1F
100
AcDbEntity
  8
0
  6
Continuous
 62
     7
100
AcDbLine
 10
-37.5708417600158
 20
0.40240436936969
 30
0.0
 11
-34.5708417600158
 21
-1.32964663063032
 31
0.0
  0
LINE
  5
12F
330
1F
100
AcDbEntity
  8
0
  6
Continuous
 62
     7
100
AcDbLine
 10
-34.5708417600158
 20
-1.32964663063032
 30
0.0
 11
-34.5708417600158
 21
-2.59759563063031
 31
0.0
  0
LINE
  5
130
330
1F
100
AcDbEntity
  8
0
  6
Continuous
 62
     7
100
AcDbLine
 10
-34.5708417600158
 20
-2.59759563063031
 30
0.0
 11
-62.1708417600158
 21
-2.59759563063031
 31
0.0
  0
LINE
  5
131
330
1F
100
AcDbEntity
  8
0
  6
Continuous
 62
     7
100
AcDbLine
 10
-62.1708417600158
 20
-2.59759563063031
 30
0.0
 11
-62.1708417600158
 21
7.20240436936969
 31
0.0
  0
LINE
  5
132
330
1F
100
AcDbEntity
  8
0
  6
Continuous
 62
     7
100
AcDbLine
 10
-63.1708417600158
 20
8.20240436936969
 30
0.0
 11
-63.6708417600158
 21
8.20240436936969
 31
0.0
  0
LINE
  5
133
330
1F
100
AcDbEntity
  8
1
  6
Continuous
 62
     7
100
AcDbLine
 10
-49.40596252108726
 20
-9.59759563063031
 30
0.0
 11
-49.40596252108726
 21
-17.59759563063031
 31
0.0
  0
LINE
  5
134
330
1F
100
AcDbEntity
  8
1
  6
Continuous
 62
     7
100
AcDbLine
 10
-35.40596252108726
 20
-9.59759563063031
 30
0.0
 11
-35.40596252108726
 21
-5.59759563063031
 31
0.0
  0
LINE
  5
135
330
1F
100
AcDbEntity
  8
1
  6
DASHED
 62
     2
100
AcDbLine
 10
-38.15596252108726
 20
-9.59759563063031
 30
0.0
 11
-35.40596252108726
 21
-9.59759563063031
 31
0.0
  0
LINE
  5
136
330
1F
100
AcDbEntity
  8
1
  6
Continuous
 62
     7
100
AcDbLine
 10
-49.40596252108726
 20
-5.59759563063031
 30
0.0
 11
-49.40596252108726
 21
-9.59759563063031
 31
0.0
  0
LINE
  5
137
330
1F
100
AcDbEntity
  8
1
  6
Continuous
 62
     7
100
AcDbLine
 10
-35.40596252108726
 20
-17.59759563063031
 30
0.0
 11
-35.40596252108726
 21
-9.59759563063031
 31
0.0
  0
LINE
  5
138
330
1F
100
AcDbEntity
  8
1
  6
DOT_CENTER
 62
     2
100
AcDbLine
 10
-42.40596252108726
 20
-26.88849943922432
 30
0.0
 11
-42.40596252108726
 21
20.90240436936969
 31
0.0
  0
LINE
  5
139
330
1F
100
AcDbEntity
  8
1
  6
DOT_CENTER
 62
     2
100
AcDbLine
 10
-52.31171732251924
 20
-17.59759563063031
 30
0.0
 11
-32.75431291829624
 21
-17.59759563063031
 31
0.0
  0
LINE
  5
13A
330
1F
100
AcDbEntity
  8
1
  6
DASHED
 62
     2
100
AcDbLine
 10
-44.90596252108726
 20
-7.51202684359042
 30
0.0
 11
-44.90596252108726
 21
-5.59759563063031
 31
0.0
  0
LINE
  5
13B
330
1F
100
AcDbEntity
  8
1
  6
DASHED
 62
     2
100
AcDbLine
 10
-46.65596252108726
 20
-9.59759563063031
 30
0.0
 11
-44.90596252108726
 21
-7.51202684359042
 31
0.0
  0
LINE
  5
13C
330
1F
100
AcDbEntity
  8
1
  6
DASHED
 62
     2
100
AcDbLine
 10
-49.40596252108726
 20
-9.59759563063031
 30
0.0
 11
-46.65596252108726
 21
-9.59759563063031
 31
0.0
  0
LINE
  5
13D
330
1F
100
AcDbEntity
  8
1
  6
DASHED
 62
     2
100
AcDbLine
 10
-39.90596252108726
 20
-7.51202684359042
 30
0.0
 11
-39.90596252108726
 21
-5.59759563063031
 31
0.0
  0
LINE
  5
13E
330
1F
100
AcDbEntity
  8
1
  6
DASHED
 62
     2
100
AcDbLine
 10
-38.15596252108726
 20
-9.59759563063031
 30
0.0
 11
-39.90596252108726
 21
-7.51202684359042
 31
0.0
  0
LINE
  5
13F
330
1F
100
AcDbEntity
  8
1
  6
DASHED
 62
     2
100
AcDbLine
 10
-46.65596252108726
 20
-9.59759563063031
 30
0.0
 11
-38.15596252108726
 21
-9.59759563063031
 31
0.0
  0
LINE
  5
140
330
1F
100
AcDbEntity
  8
1
  6
DASHED
 62
     2
100
AcDbLine
 10
-39.90596252108726
 20
-7.51202684359042
 30
0.0
 11
-44.90596252108726
 21
-7.51202684359042
 31
0.0
  0
LINE
  5
141
330
1F
100
AcDbEntity
  8
1
  6
DASHED
 62
     2
100
AcDbLine
 10
-31.32039373404736
 20
-17.09759563063031
 30
0.0
 11
-31.32039373404736
 21
-12.09759563063031
 31
0.0
  0
LINE
  5
142
330
1F
100
AcDbEntity
  8
1
  6
Continuous
 62
     7
100
AcDbLine
 10
-33.40596252108726
 20
-20.54243917033941
 30
0.0
 11
-33.40596252108726
 21
-18.84759563063031
 31
0.0
  0
LINE
  5
143
330
1F
100
AcDbEntity
  8
1
  6
DASHED
 62
     2
100
AcDbLine
 10
-33.40596252108726
 20
-18.84759563063031
 30
0.0
 11
-31.32039373404736
 21
-17.09759563063031
 31
0.0
  0
LINE
  5
144
330
1F
100
AcDbEntity
  8
1
  6
DASHED
 62
     2
100
AcDbLine
 10
-31.32039373404736
 20
-17.09759563063031
 30
0.0
 11
-29.03719551637609
 21
-17.09759563063031
 31
0.0
  0
LINE
  5
145
330
1F
100
AcDbEntity
  8
1
  6
Continuous
 62
     7
100
AcDbLine
 10
-33.40596252108726
 20
-10.28081439273842
 30
0.0
 11
-33.40596252108726
 21
-10.34759563063031
 31
0.0
  0
LINE
  5
146
330
1F
100
AcDbEntity
  8
1
  6
DASHED
 62
     2
100
AcDbLine
 10
-33.40596252108726
 20
-10.34759563063031
 30
0.0
 11
-31.32039373404736
 21
-12.09759563063031
 31
0.0
  0
LINE
  5
147
330
1F
100
AcDbEntity
  8
1
  6
DASHED
 62
     2
100
AcDbLine
 10
-31.32039373404736
 20
-12.09759563063031
 30
0.0
 11
-29.47463883400573
 21
-12.09759563063031
 31
0.0
  0
LINE
  5
148
330
1F
100
AcDbEntity
  8
1
  6
DOT_CENTER
 62
     2
100
AcDbLine
 10
-34.90596252108726
 20
-14.59759563063031
 30
0.0
 11
2.15659416128325
 21
-14.59759563063031
 31
0.0
  0
LINE
  5
149
330
1F
100
AcDbEntity
  8
1
  6
Continuous
 62
     7
100
AcDbLine
 10
-36.34378469459615
 20
-21.09759563063032
 30
0.0
 11
-33.40596252108726
 21
-20.54243917033941
 31
0.0
  0
LINE
  5
14A
330
1F
100
AcDbEntity
  8
1
  6
Continuous
 62
     7
100
AcDbLine
 10
-33.40596252108726
 20
-10.59759563063031
 30
0.0
 11
-33.40596252108726
 21
-18.84759563063031
 31
0.0
  0
LINE
  5
14B
330
1F
100
AcDbEntity
  8
1
  6
Continuous
 62
     7
100
AcDbLine
 10
-33.40596252108726
 20
-20.54243917033941
 30
0.0
 11
-28.82005199757679
 21
-19.57955740771212
 31
0.0
  0
LINE
  5
14C
330
1F
100
AcDbEntity
  8
1
  6
DASHED
 62
     2
100
AcDbLine
 10
-35.40596252108726
 20
-10.59759563063031
 30
0.0
 11
-42.40596252108726
 21
-10.59759563063031
 31
0.0
  0
LINE
  5
14D
330
1F
100
AcDbEntity
  8
1
  6
Continuous
 62
     7
100
AcDbLine
 10
-33.40596252108726
 20
-10.28081439273842
 30
0.0
 11
-29.82912848103952
 21
-8.04576042424661
 31
0.0
  0
LINE
  5
14E
330
1F
100
AcDbEntity
  8
1
  6
Continuous
 62
     7
100
AcDbLine
 10
-33.40596252108726
 20
-10.59759563063031
 30
0.0
 11
-33.90596252108726
 21
-10.59759563063031
 31
0.0
  0
LINE
  5
14F
330
1F
100
AcDbEntity
  8
1
  6
Continuous
 62
     7
100
AcDbLine
 10
-33.40596252108726
 20
-10.34759563063031
 30
0.0
 11
-33.40596252108726
 21
-10.59759563063031
 31
0.0
  0
LINE
  5
150
330
1F
100
AcDbEntity
  8
1
  6
Continuous
 62
     7
100
AcDbLine
 10
-33.90596252108726
 20
-10.59759563063031
 30
0.0
 11
-35.40596252108726
 21
-10.59759563063031
 31
0.0
  0
LINE
  5
151
330
1F
100
AcDbEntity
  8
0
  6
Continuous
 62
     7
100
AcDbLine
 10
-29.82912848103952
 20
-8.04576042424661
 30
0.0
 11
-29.47463883400573
 21
-12.09759563063031
 31
0.0
  0
LINE
  5
152
330
1F
100
AcDbEntity
  8
0
  6
Continuous
 62
     7
100
AcDbLine
 10
-29.47463883400573
 20
-12.09759563063031
 30
0.0
 11
-29.03719551637609
 21
-17.09759563063031
 31
0.0
  0
LINE
  5
153
330
1F
100
AcDbEntity
  8
0
  6
Continuous
 62
     7
100
AcDbLine
 10
-29.03719551637609
 20
-17.09759563063031
 30
0.0
 11
-28.82005199757679
 21
-19.57955740771212
 31
0.0
  0
LINE
  5
154
330
1F
100
AcDbEntity
  8
0
  6
Continuous
 62
     7
100
AcDbLine
 10
-28.82005199757679
 20
-19.57955740771212
 30
0.0
 11
-28.71619685527559
 21
-20.76662711612562
 31
0.0
  0
ARC
  5
155
102
{ACAD_REACTORS
330
182
330
182
102
}
330
1F
100
AcDbEntity
  8
0
  6
Continuous
 62
     7
100
AcDbCircle
 10
-3.45781125416616
 20
18.29634486352009
 30
0.0
 40
1.999998505850147
100
AcDbArc
 50
89.99995719571301
 51
-179.9999571957118
  0
ARC
  5
156
102
{ACAD_REACTORS
330
182
330
182
102
}
330
1F
100
AcDbEntity
  8
0
  6
Continuous
 62
     7
100
AcDbCircle
 10
50.54219210767219
 20
17.79634523705769
 30
0.0
 40
2.499998132312713
100
AcDbArc
 50
-0.00004280428814
 51
90.00004280428757
  0
ARC
  5
157
102
{ACAD_REACTORS
330
182
330
182
102
}
330
1F
100
AcDbEntity
  8
0
  6
Continuous
 62
     7
100
AcDbCircle
 10
50.54219210767219
 20
-2.70365849831822
 30
0.0
 40
2.499998132312798
100
AcDbArc
 50
-90.00004280428757
 51
0.00004280428562
  0
ARC
  5
158
102
{ACAD_REACTORS
330
182
330
182
102
}
330
1F
100
AcDbEntity
  8
0
  6
Continuous
 62
     7
100
AcDbCircle
 10
50.54219061352181
 20
-2.70365700416791
 30
0.0
 40
0.4999996264625515
100
AcDbArc
 50
-90.00004280428823
 51
0.00004280428654
  0
ARC
  5
159
102
{ACAD_REACTORS
330
182
330
182
102
}
330
1F
100
AcDbEntity
  8
0
  6
Continuous
 62
     7
100
AcDbCircle
 10
50.54219061352181
 20
17.79634374290728
 30
0.0
 40
0.4999996264625369
100
AcDbArc
 50
-0.00004280428781
 51
90.00004280428823
  0
ARC
  5
15A
102
{ACAD_REACTORS
330
182
330
182
102
}
330
1F
100
AcDbEntity
  8
0
  6
Continuous
 62
     7
100
AcDbCircle
 10
-2.95781013355338
 20
17.79634374290728
 30
0.0
 40
0.4999996264625404
100
AcDbArc
 50
89.99995719571346
 51
-179.9999571957122
  0
ARC
  5
15B
330
1F
100
AcDbEntity
  8
0
  6
Continuous
 62
     7
100
AcDbCircle
 10
-2.95781013355338
 20
17.79634374290728
 30
0.0
 40
0.4999996264625404
100
AcDbArc
 50
89.99995719571346
 51
-179.9999571957122
  0
ARC
  5
15C
330
1F
100
AcDbEntity
  8
0
  6
Continuous
 62
     7
100
AcDbCircle
 10
-3.06880017223504
 20
25.04459217802398
 30
0.0
 40
1.50000041221927
100
AcDbArc
 50
-110.7127068617044
 51
0.0000073088661
  0
ARC
  5
15D
330
1F
100
AcDbEntity
  8
0
  6
Continuous
 62
     7
100
AcDbCircle
 10
50.33120065220349
 20
25.04459217802398
 30
0.0
 40
1.500000412219306
100
AcDbArc
 50
179.9999926911339
 51
-69.28729313829665
  0
ARC
  5
15E
330
1F
100
AcDbEntity
  8
0
  6
Continuous
 62
     7
100
AcDbCircle
 10
-1.06879826586542
 20
12.35768586352009
 30
0.0
 40
1.99999850585019
100
AcDbArc
 50
-0.00004280428817
 51
90.000042804287
  0
ARC
  5
15F
330
1F
100
AcDbEntity
  8
0
  6
Continuous
 62
     7
100
AcDbCircle
 10
-21.09836901294062
 20
-13.59231637770552
 30
0.0
 40
0.9999992529250684
100
AcDbArc
 50
-90.00004280428679
 51
0.00004280428852
  0
ARC
  5
160
330
1F
100
AcDbEntity
  8
0
  6
Continuous
 62
     7
100
AcDbCircle
 10
73.4790937543247
 20
-20.59231657517012
 30
0.0
 40
1.999999055460763
100
AcDbArc
 50
-90.00004338267969
 51
-4.99999000069774
  0
ARC
  5
161
330
1F
100
AcDbEntity
  8
0
  6
Continuous
 62
     7
100
AcDbCircle
 10
73.94103261352181
 20
-12.59231600416791
 30
0.0
 40
0.4999996264625386
100
AcDbArc
 50
-90.00004280428823
 51
0.00004280428801
  0
ARC
  5
162
330
1F
100
AcDbEntity
  8
0
  6
Continuous
 62
     7
100
AcDbCircle
 10
70.13119986644661
 20
-12.59231600416791
 30
0.0
 40
0.4999996264625369
100
AcDbArc
 50
179.999957195712
 51
-89.99995719571179
  0
ARC
  5
163
330
1F
100
AcDbEntity
  8
0
  6
Continuous
 62
     7
100
AcDbCircle
 10
54.13120051074959
 20
27.40768409814689
 30
0.0
 40
0.9999997292346527
100
AcDbArc
 50
-67.0000182659774
 51
0.00001553992589
  0
ARC
  5
164
330
1F
100
AcDbEntity
  8
0
  6
Continuous
 62
     7
100
AcDbCircle
 10
-6.86880003078125
 20
27.40768409814689
 30
0.0
 40
0.9999997292345956
100
AcDbArc
 50
179.9999844600741
 51
-112.9999817340196
  0
ARC
  5
165
330
1F
100
AcDbEntity
  8
0
  6
Continuous
 62
     7
100
AcDbCircle
 10
-2.4087993565952
 20
11.01768477279029
 30
0.0
 40
0.5399995965795429
100
AcDbArc
 50
-0.00004280428707
 51
90.00004280428708
  0
ARC
  5
166
330
1F
100
AcDbEntity
  8
0
  6
Continuous
 62
     7
100
AcDbCircle
 10
-2.4087993565952
 20
-4.10231603405092
 30
0.0
 40
0.539999596579557
100
AcDbArc
 50
-90.00004280428708
 51
0.00004280428707
  0
ARC
  5
167
330
1F
100
AcDbEntity
  8
0
  6
Continuous
 62
     7
100
AcDbCircle
 10
-22.86879938647821
 20
-12.59231600416791
 30
0.0
 40
0.4999996264625386
100
AcDbArc
 50
-90.000042804287
 51
0.00004280428801
  0
ARC
  5
168
330
1F
100
AcDbEntity
  8
0
  6
Continuous
 62
     7
100
AcDbCircle
 10
-26.86880013355339
 20
-12.59231600416791
 30
0.0
 40
0.4999996264625511
100
AcDbArc
 50
179.999957195712
 51
-89.99995719571342
  0
ARC
  5
169
330
1F
100
AcDbEntity
  8
0
  6
Continuous
 62
     7
100
AcDbCircle
 10
68.28048749290899
 20
-13.6565463777055
 30
0.0
 40
0.9999992529250737
100
AcDbArc
 50
179.9999571957133
 51
-89.99995719571179
  0
ARC
  5
16A
330
1F
100
AcDbEntity
  8
0
  6
Continuous
 62
     7
100
AcDbCircle
 10
57.28659445354789
 20
-3.51975376824451
 30
0.0
 40
7.620364501131097
100
AcDbArc
 50
-102.5255963315289
 51
-64.4046863831836
  0
ARC
  5
16B
102
{ACAD_REACTORS
330
183
330
183
102
}
330
1F
100
AcDbEntity
  8
0
  6
Continuous
 62
     7
100
AcDbCircle
 10
-35.19683401294062
 20
13.95285462229448
 30
0.0
 40
0.9999992529250684
100
AcDbArc
 50
-90.0000428042866
 51
0.00004280428852
  0
ARC
  5
16C
102
{ACAD_REACTORS
330
183
330
183
102
}
330
1F
100
AcDbEntity
  8
0
  6
Continuous
 62
     7
100
AcDbCircle
 10
-34.99683326586544
 20
13.75285387521929
 30
0.0
 40
1.999998505850169
100
AcDbArc
 50
-90.00004280428679
 51
0.00004280428761
  0
ARC
  5
16D
102
{ACAD_REACTORS
330
183
330
183
102
}
330
1F
100
AcDbEntity
  8
0
  6
Continuous
 62
     7
100
AcDbCircle
 10
-60.99683625416617
 20
13.75285387521929
 30
0.0
 40
1.99999850585019
100
AcDbArc
 50
179.9999571957124
 51
-89.99995719571301
  0
ARC
  5
16E
102
{ACAD_REACTORS
330
183
330
183
102
}
330
1F
100
AcDbEntity
  8
0
  6
Continuous
 62
     7
100
AcDbCircle
 10
-60.99683625416617
 20
34.75285686352009
 30
0.0
 40
1.999998505850147
100
AcDbArc
 50
89.99995719571301
 51
-179.9999571957118
  0
ARC
  5
16F
102
{ACAD_REACTORS
330
183
330
183
102
}
330
1F
100
AcDbEntity
  8
0
  6
Continuous
 62
     7
100
AcDbCircle
 10
-34.99683326586544
 20
34.75285686352009
 30
0.0
 40
1.999998505850197
100
AcDbArc
 50
-0.00004280428822
 51
90.00004280428679
  0
ARC
  5
170
102
{ACAD_REACTORS
330
183
330
183
102
}
330
1F
100
AcDbEntity
  8
0
  6
Continuous
 62
     7
100
AcDbCircle
 10
-35.19683401294062
 20
34.55285611644487
 30
0.0
 40
0.9999992529251022
100
AcDbArc
 50
-0.00004280428618
 51
90.0000428042866
  0
ARC
  5
171
102
{ACAD_REACTORS
330
183
330
183
102
}
330
1F
100
AcDbEntity
  8
0
  6
Continuous
 62
     7
100
AcDbCircle
 10
-60.79683550709098
 20
34.55285611644487
 30
0.0
 40
0.9999992529251093
100
AcDbArc
 50
89.99995719571301
 51
-179.9999571957138
  0
ARC
  5
172
102
{ACAD_REACTORS
330
183
330
183
102
}
330
1F
100
AcDbEntity
  8
0
  6
Continuous
 62
     7
100
AcDbCircle
 10
-60.79683550709098
 20
13.95285462229448
 30
0.0
 40
0.9999992529250951
100
AcDbArc
 50
179.9999571957115
 51
-89.99995719571301
  0
ARC
  5
173
330
1F
100
AcDbEntity
  8
0
  6
Continuous
 62
     7
100
AcDbCircle
 10
-63.17084101294061
 20
41.70450462229448
 30
0.0
 40
0.9999992529250809
100
AcDbArc
 50
-90.000042804287
 51
0.00004280428781
  0
ARC
  5
174
330
1F
100
AcDbEntity
  8
0
  6
Continuous
 62
     7
100
AcDbCircle
 10
-69.87084169051433
 20
6.92863416523359
 30
0.0
 40
0.5000000695015093
100
AcDbArc
 50
179.9999766077293
 51
-61.99998488332044
  0
ARC
  5
175
330
1F
100
AcDbEntity
  8
0
  6
Continuous
 62
     7
100
AcDbCircle
 10
-69.87084169051433
 20
41.87617457350578
 30
0.0
 40
0.5000000695014986
100
AcDbArc
 50
61.9999848833212
 51
-179.9999766077309
  0
ARC
  5
176
330
1F
100
AcDbEntity
  8
0
  6
Continuous
 62
     7
100
AcDbCircle
 10
-9.51583274567524
 20
52.40240585956317
 30
0.0
 40
1.999998509806725
100
AcDbArc
 50
4.99997567675621
 51
90.00002905873804
  0
ARC
  5
177
330
1F
100
AcDbEntity
  8
0
  6
Continuous
 62
     7
100
AcDbCircle
 10
-11.56485926001581
 20
43.62633895065
 30
0.0
 40
2.999999908607204
100
AcDbArc
 50
-23.57817051459361
 51
-156.4218294854063
  0
ARC
  5
178
330
1F
100
AcDbEntity
  8
0
  6
Continuous
 62
     7
100
AcDbCircle
 10
-26.21933279772305
 20
38.77324965041598
 30
0.0
 40
2.499999724297823
100
AcDbArc
 50
48.16703340343023
 51
-164.4576990954098
  0
ARC
  5
179
330
1F
100
AcDbEntity
  8
AKONTUR
  6
Continuous
 62
     7
100
AcDbCircle
 10
-26.21933239135008
 20
38.77325225719699
 30
0.0
 40
5.199997705885883
100
AcDbArc
 50
39.80836372393922
 51
149.0057418611094
  0
ARC
  5
17A
330
1F
100
AcDbEntity
  8
AKONTUR
  6
Continuous
 62
     7
100
AcDbCircle
 10
-11.56485661753587
 20
43.62633607951969
 30
0.0
 40
4.500002549491694
100
AcDbArc
 50
71.3369132862483
 51
175.9454983752437
  0
ARC
  5
17B
330
1F
100
AcDbEntity
  8
0
  6
Continuous
 62
     7
100
AcDbCircle
 10
-33.57084250709098
 20
6.90240511644488
 30
0.0
 40
0.999999252925088
100
AcDbArc
 50
89.99995719571342
 51
-179.9999571957126
  0
ARC
  5
17C
330
1F
100
AcDbEntity
  8
0
  6
Continuous
 62
     7
100
AcDbCircle
 10
-63.17084101294061
 20
7.20240511644488
 30
0.0
 40
0.9999992529250951
100
AcDbArc
 50
-0.0000428042874
 51
90.000042804287
  0
ARC
  5
17D
330
1F
100
AcDbEntity
  8
1
  6
Continuous
 62
     7
100
AcDbCircle
 10
-42.40596252108726
 20
-17.59759563063031
 30
0.0
 40
7.0
100
AcDbArc
 50
180.0
 51
-90.0
  0
ARC
  5
17E
330
1F
100
AcDbEntity
  8
1
  6
Continuous
 62
     7
100
AcDbCircle
 10
-42.40596252108726
 20
-17.59759563063031
 30
0.0
 40
7.000000000000011
100
AcDbArc
 50
-90.0
 51
0.0
  0
ARC
  5
17F
330
1F
100
AcDbEntity
  8
1
  6
DASHED
 62
     2
100
AcDbCircle
 10
-42.40596252108726
 20
-17.59759563063031
 30
0.0
 40
6.999999999999998
100
AcDbArc
 50
90.0
 51
180.0
  0
CIRCLE
  5
180
330
1F
100
AcDbEntity
  8
1
  6
Continuous
 62
     7
100
AcDbCircle
 10
-42.40596252108726
 20
-17.59759563063031
 30
0.0
 40
5.039999999999861
  0
ARC
  5
181
330
1F
100
AcDbEntity
  8
1
  6
Continuous
 62
     7
100
AcDbCircle
 10
-26.72380745909209
 20
-20.59231563063031
 30
0.0
 40
2.000000000000009
100
AcDbArc
 50
-175.0000000000002
 51
-90.0
  0
HATCH
  5
182
330
1F
100
AcDbEntity
  8
1
  6
Continuous
 62
     3
100
AcDbHatch
 10
0.0
 20
0.0
 30
0.0
210
0.0
220
0.0
230
1.0
  2
SOLID
 70
     1
 71
     1
 91
        1
 92
        1
 93
       16
 72
     1
 10
53.04219023998421
 20
17.79634336936968
 11
53.04219023998421
 21
-2.70365663063032
 72
     2
 10
50.54219210767219
 20
-2.70365849831822
 40
2.499998132312798
 50
359.9999571957144
 51
450.0000428042876
 73
     0
 72
     1
 10
50.54219023998421
 20
-5.20365663063032
 11
1.042190239984208
 21
-5.20365663063032
 72
     1
 10
1.042190239984208
 20
-5.20365663063032
 11
1.042190239984208
 21
-3.20365663063032
 72
     1
 10
1.042190239984208
 20
-3.20365663063032
 11
50.54219023998421
 21
-3.20365663063032
 72
     2
 10
50.54219061352181
 20
-2.703657004167908
 40
0.4999996264625515
 50
269.9999571957118
 51
360.0000428042866
 73
     1
 72
     1
 10
51.04219023998421
 20
-2.70365663063032
 11
51.04219023998421
 21
17.79634336936968
 72
     2
 10
50.54219061352181
 20
17.79634374290728
 40
0.4999996264625369
 50
359.9999571957122
 51
450.0000428042882
 73
     1
 72
     1
 10
50.54219023998421
 20
18.29634336936968
 11
-2.957809760015792
 21
18.29634336936968
 72
     2
 10
-2.95781013355338
 20
17.79634374290728
 40
0.4999996264625404
 50
89.99995719571346
 51
180.0000428042878
 73
     1
 72
     1
 10
-3.457809760015792
 20
17.79634336936968
 11
-3.457809760015792
 21
15.79634336936968
 72
     1
 10
-3.457809760015792
 20
15.79634336936968
 11
-5.457809760015792
 21
15.79634336936968
 72
     1
 10
-5.457809760015792
 20
15.79634336936968
 11
-5.457809760015792
 21
18.29634336936968
 72
     2
 10
-3.45781125416616
 20
18.29634486352009
 40
1.999998505850147
 50
179.9999571957118
 51
270.000042804287
 73
     0
 72
     1
 10
-3.457809760015792
 20
20.29634336936968
 11
50.54219023998421
 21
20.29634336936968
 72
     2
 10
50.54219210767219
 20
17.79634523705769
 40
2.499998132312713
 50
269.9999571957124
 51
360.0000428042881
 73
     0
 97
       16
330
36
330
155
330
35
330
34
330
33
330
15A
330
3C
330
159
330
3B
330
158
330
3A
330
39
330
38
330
157
330
37
330
156
 75
     0
 76
     1
 98
        1
 10
0.0
 20
0.0
  0
HATCH
  5
183
330
1F
100
AcDbEntity
  8
1
  6
Continuous
 62
     3
100
AcDbHatch
 10
0.0
 20
0.0
 30
0.0
210
0.0
220
0.0
230
1.0
  2
SOLID
 70
     1
 71
     1
 91
        1
 92
        1
 93
       20
 72
     1
 10
-32.9968347600158
 20
34.75285536936968
 11
-32.9968347600158
 21
17.25285536936968
 72
     1
 10
-32.9968347600158
 20
17.25285536936968
 11
-34.1968347600158
 21
17.25285536936968
 72
     1
 10
-34.1968347600158
 20
17.25285536936968
 11
-34.1968347600158
 21
34.5528553693697
 72
     2
 10
-35.19683401294062
 20
34.55285611644487
 40
0.9999992529251022
 50
359.9999571957138
 51
450.0000428042866
 73
     1
 72
     1
 10
-35.1968347600158
 20
35.5528553693697
 11
-60.7968347600158
 21
35.5528553693697
 72
     2
 10
-60.79683550709098
 20
34.55285611644487
 40
0.9999992529251093
 50
89.99995719571301
 51
180.0000428042862
 73
     1
 72
     1
 10
-61.7968347600158
 20
34.5528553693697
 11
-61.7968347600158
 21
13.95285536936969
 72
     2
 10
-60.79683550709098
 20
13.95285462229448
 40
0.9999992529250951
 50
179.9999571957115
 51
270.000042804287
 73
     1
 72
     1
 10
-60.7968347600158
 20
12.95285536936969
 11
-35.1968347600158
 21
12.95285536936969
 72
     2
 10
-35.19683401294062
 20
13.95285462229448
 40
0.9999992529250684
 50
269.9999571957134
 51
360.0000428042886
 73
     1
 72
     1
 10
-34.1968347600158
 20
13.95285536936969
 11
-34.1968347600158
 21
16.75285536936968
 72
     1
 10
-34.1968347600158
 20
16.75285536936968
 11
-32.9968347600158
 21
16.75285536936968
 72
     1
 10
-32.9968347600158
 20
16.75285536936968
 11
-32.9968347600158
 21
13.75285536936968
 72
     2
 10
-34.99683326586544
 20
13.75285387521929
 40
1.999998505850169
 50
359.9999571957124
 51
450.0000428042868
 73
     0
 72
     1
 10
-34.9968347600158
 20
11.75285536936968
 11
-60.9968347600158
 21
11.75285536936968
 72
     2
 10
-60.99683625416617
 20
13.75285387521929
 40
1.99999850585019
 50
89.99995719571301
 51
180.0000428042876
 73
     0
 72
     1
 10
-62.9968347600158
 20
13.75285536936968
 11
-62.9968347600158
 21
34.75285536936968
 72
     2
 10
-60.99683625416617
 20
34.75285686352009
 40
1.999998505850147
 50
179.9999571957118
 51
270.000042804287
 73
     0
 72
     1
 10
-60.9968347600158
 20
36.75285536936968
 11
-34.9968347600158
 21
36.75285536936968
 72
     2
 10
-34.99683326586544
 20
34.75285686352009
 40
1.999998505850197
 50
269.9999571957133
 51
360.0000428042882
 73
     0
 97
       20
330
CC
330
16E
330
CB
330
16D
330
CA
330
16C
330
C9
330
C8
330
C7
330
16B
330
C6
330
172
330
D1
330
171
330
D0
330
170
330
CF
330
CE
330
CD
330
16F
 75
     0
 76
     1
 98
        1
 10
0.0
 20
0.0
  0
ENDSEC
  0
SECTION
  2
OBJECTS
  0
DICTIONARY
  5
C
330
0
100
AcDbDictionary
281
     1
  3
ACAD_GROUP
350
D
  3
ACAD_LAYOUT
350
1A
  3
ACAD_MLINESTYLE
350
17
  3
ACAD_PLOTSETTINGS
350
19
  3
ACAD_PLOTSTYLENAME
350
E
  0
DICTIONARY
  5
D
102
{ACAD_REACTORS
330
C
102
}
330
C
100
AcDbDictionary
281
     1
  0
DICTIONARY
  5
1A
102
{ACAD_REACTORS
330
C
102
}
330
C
100
AcDbDictionary
281
     1
  3
Layout1
350
1E
  3
Layout2
350
26
  3
Model
350
22
  0
DICTIONARY
  5
17
102
{ACAD_REACTORS
330
C
102
}
330
C
100
AcDbDictionary
281
     1
  3
Standard
350
18
  0
DICTIONARY
  5
19
102
{ACAD_REACTORS
330
C
102
}
330
C
100
AcDbDictionary
281
     1
  0
ACDBDICTIONARYWDFLT
  5
E
102
{ACAD_REACTORS
330
C
102
}
330
C
100
AcDbDictionary
281
     1
  3
Normal
350
F
100
AcDbDictionaryWithDefault
340
F
  0
LAYOUT
  5
1E
102
{ACAD_REACTORS
330
1A
102
}
330
1A
100
AcDbPlotSettings
  1

  2

  4

  6

 40
0.0
 41
0.0
 42
0.0
 43
0.0
 44
0.0
 45
0.0
 46
0.0
 47
0.0
 48
0.0
 49
0.0
140
0.0
141
0.0
142
1.0
143
1.0
 70
   688
 72
     0
 73
     0
 74
     5
  7

 75
    16
 76
     0
 77
     2
 78
   300
147
1.0
148
0.0
149
0.0
100
AcDbLayout
  1
Layout1
 70
     1
 71
     1
 10
0.0
 20
0.0
 11
0.0
 21
0.0
 12
0.0
 22
0.0
 32
0.0
 14
0.0
 24
0.0
 34
0.0
 15
0.0
 25
0.0
 35
0.0
146
0.0
 13
0.0
 23
0.0
 33
0.0
 16
1.0
 26
0.0
 36
0.0
 17
0.0
 27
1.0
 37
0.0
 76
     0
330
1B
  0
LAYOUT
  5
26
102
{ACAD_REACTORS
330
1A
102
}
330
1A
100
AcDbPlotSettings
  1

  2

  4

  6

 40
0.0
 41
0.0
 42
0.0
 43
0.0
 44
0.0
 45
0.0
 46
0.0
 47
0.0
 48
0.0
 49
0.0
140
0.0
141
0.0
142
1.0
143
1.0
 70
   688
 72
     0
 73
     0
 74
     5
  7

 75
    16
 76
     0
 77
     2
 78
   300
147
1.0
148
0.0
149
0.0
100
AcDbLayout
  1
Layout2
 70
     1
 71
     2
 10
0.0
 20
0.0
 11
0.0
 21
0.0
 12
0.0
 22
0.0
 32
0.0
 14
0.0
 24
0.0
 34
0.0
 15
0.0
 25
0.0
 35
0.0
146
0.0
 13
0.0
 23
0.0
 33
0.0
 16
1.0
 26
0.0
 36
0.0
 17
0.0
 27
1.0
 37
0.0
 76
     0
330
23
  0
LAYOUT
  5
22
102
{ACAD_REACTORS
330
1A
102
}
330
1A
100
AcDbPlotSettings
  1

  2

  4

  6

 40
0.0
 41
0.0
 42
0.0
 43
0.0
 44
0.0
 45
0.0
 46
0.0
 47
0.0
 48
0.0
 49
0.0
140
0.0
141
0.0
142
1.0
143
1.0
 70
  1712
 72
     0
 73
     0
 74
     0
  7

 75
     0
 76
     0
 77
     2
 78
   300
147
1.0
148
0.0
149
0.0
100
AcDbLayout
  1
Model
 70
     1
 71
     0
 10
0.0
 20
0.0
 11
0.0
 21
0.0
 12
0.0
 22
0.0
 32
0.0
 14
-73.3708417600158
 24
-26.88849943922432
 34
0.0
 15
77.13120023998421
 25
54.40240436936995
 35
0.0
146
0.0
 13
0.0
 23
0.0
 33
0.0
 16
1.0
 26
0.0
 36
0.0
 17
0.0
 27
1.0
 37
0.0
 76
     0
330
1F
  0
MLINESTYLE
  5
18
102
{ACAD_REACTORS
330
17
102
}
330
17
100
AcDbMlineStyle
  2
Standard
 70
     0
  3

 62
   256
 51
90.0
 52
90.0
 71
     2
 49
0.5
 62
   256
  6
BYLAYER
 49
-0.5
 62
   256
  6
BYLAYER
  0
ACDBPLACEHOLDER
  5
F
102
{ACAD_REACTORS
330
E
102
}
330
E
  0
ENDSEC
  0
EOF
