  0
SECTION
  2
HEADER
  9
$ACADVER
  1
AC1018
  9
$ACADMAINTVER
 70
     0
  9
$DWGCODEPAGE
  3
ANSI_1252
  9
$INSBASE
 10
0.0
 20
0.0
 30
0.0
  9
$EXTMIN
 10
-72.39999999999998
 20
-20.04998999999999
 30
0.0
  9
$EXTMAX
 10
71.89996999999994
 20
64.400013
 30
0.0
  9
$LIMMIN
 10
0.0
 20
0.0
  9
$LIMMAX
 10
12.0
 20
9.0
  9
$ORTHOMODE
 70
     0
  9
$REGENMODE
 70
     1
  9
$FILLMODE
 70
     1
  9
$QTEXTMODE
 70
     0
  9
$MIRRTEXT
 70
     1
  9
$LTSCALE
 40
1.0
  9
$ATTMODE
 70
     1
  9
$TEXTSIZE
 40
0.2
  9
$TRACEWID
 40
0.05
  9
$TEXTSTYLE
  7
Standard
  9
$CLAYER
  8
0
  9
$CELTYPE
  6
ByLayer
  9
$CECOLOR
 62
   256
  9
$CELTSCALE
 40
1.0
  9
$DISPSILH
 70
     0
  9
$DIMSCALE
 40
1.0
  9
$DIMASZ
 40
0.18
  9
$DIMEXO
 40
0.0625
  9
$DIMDLI
 40
0.38
  9
$DIMRND
 40
0.0
  9
$DIMDLE
 40
0.0
  9
$DIMEXE
 40
0.18
  9
$DIMTP
 40
0.0
  9
$DIMTM
 40
0.0
  9
$DIMTXT
 40
0.18
  9
$DIMCEN
 40
0.09
  9
$DIMTSZ
 40
0.0
  9
$DIMTOL
 70
     0
  9
$DIMLIM
 70
     0
  9
$DIMTIH
 70
     1
  9
$DIMTOH
 70
     1
  9
$DIMSE1
 70
     0
  9
$DIMSE2
 70
     0
  9
$DIMTAD
 70
     0
  9
$DIMZIN
 70
     0
  9
$DIMBLK
  1

  9
$DIMASO
 70
     1
  9
$DIMSHO
 70
     1
  9
$DIMPOST
  1

  9
$DIMAPOST
  1

  9
$DIMALT
 70
     0
  9
$DIMALTD
 70
     2
  9
$DIMALTF
 40
25.4
  9
$DIMLFAC
 40
1.0
  9
$DIMTOFL
 70
     0
  9
$DIMTVP
 40
0.0
  9
$DIMTIX
 70
     0
  9
$DIMSOXD
 70
     0
  9
$DIMSAH
 70
     0
  9
$DIMBLK1
  1

  9
$DIMBLK2
  1

  9
$DIMSTYLE
  2
Standard
  9
$DIMCLRD
 70
     0
  9
$DIMCLRE
 70
     0
  9
$DIMCLRT
 70
     0
  9
$DIMTFAC
 40
1.0
  9
$DIMGAP
 40
0.09
  9
$DIMJUST
 70
     0
  9
$DIMSD1
 70
     0
  9
$DIMSD2
 70
     0
  9
$DIMTOLJ
 70
     1
  9
$DIMTZIN
 70
     0
  9
$DIMALTZ
 70
     0
  9
$DIMALTTZ
 70
     0
  9
$DIMUPT
 70
     0
  9
$DIMDEC
 70
     4
  9
$DIMTDEC
 70
     4
  9
$DIMALTU
 70
     2
  9
$DIMALTTD
 70
     2
  9
$DIMTXSTY
  7
Standard
  9
$DIMAUNIT
 70
     0
  9
$DIMADEC
 70
     0
  9
$DIMALTRND
 40
0.0
  9
$DIMAZIN
 70
     0
  9
$DIMDSEP
 70
    46
  9
$DIMATFIT
 70
     3
  9
$DIMFRAC
 70
     0
  9
$DIMLDRBLK
  1

  9
$DIMLUNIT
 70
     2
  9
$DIMLWD
 70
    -2
  9
$DIMLWE
 70
    -2
  9
$DIMTMOVE
 70
     0
  9
$LUNITS
 70
     2
  9
$LUPREC
 70
     4
  9
$SKETCHINC
 40
0.1
  9
$FILLETRAD
 40
0.5
  9
$AUNITS
 70
     0
  9
$AUPREC
 70
     0
  9
$MENU
  1
.
  9
$ELEVATION
 40
0.0
  9
$PELEVATION
 40
0.0
  9
$THICKNESS
 40
0.0
  9
$LIMCHECK
 70
     0
  9
$CHAMFERA
 40
0.5
  9
$CHAMFERB
 40
0.5
  9
$CHAMFERC
 40
1.0
  9
$CHAMFERD
 40
0.0
  9
$SKPOLY
 70
     0
  9
$TDCREATE
 40
2454483.375947627
  9
$TDUCREATE
 40
2454483.334280961
  9
$TDUPDATE
 40
2454483.375947639
  9
$TDUUPDATE
 40
2454483.334280972
  9
$TDINDWG
 40
0.0000000116
  9
$TDUSRTIMER
 40
0.0000000116
  9
$USRTIMER
 70
     1
  9
$ANGBASE
 50
0.0
  9
$ANGDIR
 70
     0
  9
$PDMODE
 70
     0
  9
$PDSIZE
 40
0.0
  9
$PLINEWID
 40
0.0
  9
$SPLFRAME
 70
     0
  9
$SPLINETYPE
 70
     6
  9
$SPLINESEGS
 70
     8
  9
$HANDSEED
  5
1AF
  9
$SURFTAB1
 70
     6
  9
$SURFTAB2
 70
     6
  9
$SURFTYPE
 70
     6
  9
$SURFU
 70
     6
  9
$SURFV
 70
     6
  9
$UCSBASE
  2

  9
$UCSNAME
  2

  9
$UCSORG
 10
0.0
 20
0.0
 30
0.0
  9
$UCSXDIR
 10
1.0
 20
0.0
 30
0.0
  9
$UCSYDIR
 10
0.0
 20
1.0
 30
0.0
  9
$UCSORTHOREF
  2

  9
$UCSORTHOVIEW
 70
     0
  9
$UCSORGTOP
 10
0.0
 20
0.0
 30
0.0
  9
$UCSORGBOTTOM
 10
0.0
 20
0.0
 30
0.0
  9
$UCSORGLEFT
 10
0.0
 20
0.0
 30
0.0
  9
$UCSORGRIGHT
 10
0.0
 20
0.0
 30
0.0
  9
$UCSORGFRONT
 10
0.0
 20
0.0
 30
0.0
  9
$UCSORGBACK
 10
0.0
 20
0.0
 30
0.0
  9
$PUCSBASE
  2

  9
$PUCSNAME
  2

  9
$PUCSORG
 10
0.0
 20
0.0
 30
0.0
  9
$PUCSXDIR
 10
1.0
 20
0.0
 30
0.0
  9
$PUCSYDIR
 10
0.0
 20
1.0
 30
0.0
  9
$PUCSORTHOREF
  2

  9
$PUCSORTHOVIEW
 70
     0
  9
$PUCSORGTOP
 10
0.0
 20
0.0
 30
0.0
  9
$PUCSORGBOTTOM
 10
0.0
 20
0.0
 30
0.0
  9
$PUCSORGLEFT
 10
0.0
 20
0.0
 30
0.0
  9
$PUCSORGRIGHT
 10
0.0
 20
0.0
 30
0.0
  9
$PUCSORGFRONT
 10
0.0
 20
0.0
 30
0.0
  9
$PUCSORGBACK
 10
0.0
 20
0.0
 30
0.0
  9
$USERI1
 70
     0
  9
$USERI2
 70
     0
  9
$USERI3
 70
     0
  9
$USERI4
 70
     0
  9
$USERI5
 70
     0
  9
$USERR1
 40
14.5
  9
$USERR2
 40
0.0
  9
$USERR3
 40
0.0
  9
$USERR4
 40
0.0
  9
$USERR5
 40
0.0
  9
$WORLDVIEW
 70
     1
  9
$SHADEDGE
 70
     3
  9
$SHADEDIF
 70
    70
  9
$TILEMODE
 70
     1
  9
$MAXACTVP
 70
    64
  9
$PINSBASE
 10
0.0
 20
0.0
 30
0.0
  9
$PLIMCHECK
 70
     0
  9
$PEXTMIN
 10
1.00000000000000E+20
 20
1.00000000000000E+20
 30
1.00000000000000E+20
  9
$PEXTMAX
 10
-1.00000000000000E+20
 20
-1.00000000000000E+20
 30
-1.00000000000000E+20
  9
$PLIMMIN
 10
0.0
 20
0.0
  9
$PLIMMAX
 10
12.0
 20
9.0
  9
$UNITMODE
 70
     0
  9
$VISRETAIN
 70
     1
  9
$PLINEGEN
 70
     0
  9
$PSLTSCALE
 70
     1
  9
$TREEDEPTH
 70
  3020
  9
$CMLSTYLE
  2
Standard
  9
$CMLJUST
 70
     0
  9
$CMLSCALE
 40
1.0
  9
$PROXYGRAPHICS
 70
     1
  9
$MEASUREMENT
 70
     1
  9
$CELWEIGHT
370
    -1
  9
$ENDCAPS
280
     0
  9
$JOINSTYLE
280
     0
  9
$LWDISPLAY
290
     0
  9
$INSUNITS
 70
     1
  9
$HYPERLINKBASE
  1

  9
$STYLESHEET
  1

  9
$XEDIT
290
     1
  9
$CEPSNTYPE
380
     0
  9
$PSTYLEMODE
290
     1
  9
$FINGERPRINTGUID
  2
{2A3AAD7B-DFE7-4C78-ADDD-2399C89A4BC3}
  9
$VERSIONGUID
  2
{FAEB1C32-E019-11D5-929B-00C0DF256EC4}
  9
$EXTNAMES
290
     1
  9
$PSVPSCALE
 40
0.0
  9
$OLESTARTUP
290
     0
  9
$SORTENTS
280
   127
  9
$INDEXCTL
280
     0
  9
$HIDETEXT
280
     1
  9
$XCLIPFRAME
290
     0
  9
$HALOGAP
280
     0
  9
$OBSCOLOR
 70
   257
  9
$OBSLTYPE
280
     0
  9
$INTERSECTIONDISPLAY
280
     0
  9
$INTERSECTIONCOLOR
 70
   257
  9
$DIMASSOC
280
     2
  9
$PROJECTNAME
  1

  0
ENDSEC
  0
SECTION
  2
CLASSES
  0
CLASS
  1
ACDBDICTIONARYWDFLT
  2
AcDbDictionaryWithDefault
  3
ObjectDBX Classes
 90
        0
 91
        3
280
     0
281
     0
  0
CLASS
  1

  2
exOdDbCircle
  3

 90
        0
 91
        3
280
     0
281
     1
  0
ENDSEC
  0
SECTION
  2
TABLES
  0
TABLE
  2
VPORT
  5
8
330
0
100
AcDbSymbolTable
 70
     1
  0
VPORT
  5
29
330
8
100
AcDbSymbolTableRecord
100
AcDbViewportTableRecord
  2
*Active
 70
     0
 10
0.0
 20
0.0
 11
1.0
 21
1.0
 12
-0.25001500000002
 22
22.1750115
 13
0.0
 23
0.0
 14
0.5
 24
0.5
 15
0.5
 25
0.5
 16
0.0
 26
0.0
 36
1.0
 17
0.0
 27
0.0
 37
0.0
 40
99.040425091922
 41
1.60267857142857
 42
50.0
 43
0.0
 44
0.0
 50
0.0
 51
0.0
 71
     0
 72
   100
 73
     1
 74
     3
 75
     0
 76
     0
 77
     0
 78
     0
281
     0
 65
     1
110
0.0
120
0.0
130
0.0
111
1.0
121
0.0
131
0.0
112
0.0
122
1.0
132
0.0
 79
     0
146
0.0
  0
ENDTAB
  0
TABLE
  2
LTYPE
  5
5
330
0
100
AcDbSymbolTable
 70
     8
  0
LTYPE
  5
14
330
5
100
AcDbSymbolTableRecord
100
AcDbLinetypeTableRecord
  2
ByBlock
 70
     0
  3

 72
    65
 73
     0
 40
0.0
  0
LTYPE
  5
15
330
5
100
AcDbSymbolTableRecord
100
AcDbLinetypeTableRecord
  2
ByLayer
 70
     0
  3

 72
    65
 73
     0
 40
0.0
  0
LTYPE
  5
16
330
5
100
AcDbSymbolTableRecord
100
AcDbLinetypeTableRecord
  2
Continuous
 70
     0
  3
Solid line
 72
    65
 73
     0
 40
0.0
  0
LTYPE
  5
2A
330
5
100
AcDbSymbolTableRecord
100
AcDbLinetypeTableRecord
  2
DASHED
 70
     0
  3
Dashed
 72
    65
 73
     2
 40
15.0
 49
7.0
 74
     0
 49
-8.0
 74
     0
  0
LTYPE
  5
2B
330
5
100
AcDbSymbolTableRecord
100
AcDbLinetypeTableRecord
  2
DOTTED
 70
     0
  3
Dotted
 72
    65
 73
     2
 40
1.0
 49
0.0
 74
     0
 49
-1.0
 74
     0
  0
LTYPE
  5
2C
330
5
100
AcDbSymbolTableRecord
100
AcDbLinetypeTableRecord
  2
DOT_CENTER
 70
     0
  3
Dot_Center
 72
    65
 73
     4
 40
14.0
 49
12.0
 74
     0
 49
-1.0
 74
     0
 49
0.0
 74
     0
 49
-1.0
 74
     0
  0
LTYPE
  5
2D
330
5
100
AcDbSymbolTableRecord
100
AcDbLinetypeTableRecord
  2
LONG_DASHED
 70
     0
  3
Long_Dashed
 72
    65
 73
     2
 40
15.0
 49
10.0
 74
     0
 49
-5.0
 74
     0
  0
LTYPE
  5
2E
330
5
100
AcDbSymbolTableRecord
100
AcDbLinetypeTableRecord
  2
DASH_CENTER
 70
     0
  3
Dash_Center
 72
    65
 73
     4
 40
14.0
 49
11.0
 74
     0
 49
-1.0
 74
     0
 49
1.0
 74
     0
 49
-1.0
 74
     0
  0
LTYPE
  5
2F
330
5
100
AcDbSymbolTableRecord
100
AcDbLinetypeTableRecord
  2
PHANTOM
 70
     0
  3
Phantom
 72
    65
 73
     6
 40
13.0
 49
10.0
 74
     0
 49
-1.0
 74
     0
 49
0.0
 74
     0
 49
-1.0
 74
     0
 49
0.0
 74
     0
 49
-1.0
 74
     0
  0
LTYPE
  5
30
330
5
100
AcDbSymbolTableRecord
100
AcDbLinetypeTableRecord
  2
CENTER_DASH_DASH
 70
     0
  3
Center_Dash_Dash
 72
    65
 73
     6
 40
14.0
 49
9.0
 74
     0
 49
-1.0
 74
     0
 49
1.0
 74
     0
 49
-1.0
 74
     0
 49
1.0
 74
     0
 49
-1.0
 74
     0
  0
ENDTAB
  0
TABLE
  2
LAYER
  5
2
330
0
100
AcDbSymbolTable
 70
     3
  0
LAYER
  5
10
330
2
100
AcDbSymbolTableRecord
100
AcDbLayerTableRecord
  2
0
 70
     0
 62
     7
  6
Continuous
370
    -3
390
F
  0
LAYER
  5
31
330
2
100
AcDbSymbolTableRecord
100
AcDbLayerTableRecord
  2
1
 70
     0
 62
     7
  6
Continuous
370
    -3
390
F
  0
LAYER
  5
32
330
2
100
AcDbSymbolTableRecord
100
AcDbLayerTableRecord
  2
PV
 70
     0
 62
     7
  6
Continuous
370
    -3
390
F
  0
ENDTAB
  0
TABLE
  2
STYLE
  5
3
330
0
100
AcDbSymbolTable
 70
     1
  0
STYLE
  5
11
330
3
100
AcDbSymbolTableRecord
100
AcDbTextStyleTableRecord
  2
Standard
 70
     0
 40
0.0
 41
1.0
 50
0.0
 71
     0
 42
0.2
  3
txt
  4

  0
ENDTAB
  0
TABLE
  2
VIEW
  5
6
330
0
100
AcDbSymbolTable
 70
     0
  0
ENDTAB
  0
TABLE
  2
UCS
  5
7
330
0
100
AcDbSymbolTable
 70
     0
  0
ENDTAB
  0
TABLE
  2
APPID
  5
9
330
0
100
AcDbSymbolTable
 70
     1
  0
APPID
  5
12
330
9
100
AcDbSymbolTableRecord
100
AcDbRegAppTableRecord
  2
ACAD
 70
     0
  0
ENDTAB
  0
TABLE
  2
DIMSTYLE
  5
A
330
0
100
AcDbSymbolTable
 70
     1
100
AcDbDimStyleTable
  0
DIMSTYLE
105
27
330
A
100
AcDbSymbolTableRecord
100
AcDbDimStyleTableRecord
  2
Standard
 70
     0
340
11
  0
ENDTAB
  0
TABLE
  2
BLOCK_RECORD
  5
1
330
0
100
AcDbSymbolTable
 70
     1
  0
BLOCK_RECORD
  5
1F
330
1
100
AcDbSymbolTableRecord
100
AcDbBlockTableRecord
  2
*Model_Space
340
22
  0
BLOCK_RECORD
  5
1B
330
1
100
AcDbSymbolTableRecord
100
AcDbBlockTableRecord
  2
*Paper_Space
340
1E
  0
BLOCK_RECORD
  5
23
330
1
100
AcDbSymbolTableRecord
100
AcDbBlockTableRecord
  2
*Paper_Space0
340
26
  0
ENDTAB
  0
ENDSEC
  0
SECTION
  2
BLOCKS
  0
BLOCK
  5
20
330
1F
100
AcDbEntity
  8
0
100
AcDbBlockBegin
  2
*Model_Space
 70
     0
 71
     0
 10
0.0
 20
0.0
 30
0.0
  3
*Model_Space
  1

  0
ENDBLK
  5
21
330
1F
100
AcDbEntity
  8
0
100
AcDbBlockEnd
  0
BLOCK
  5
1C
330
1B
100
AcDbEntity
 67
     1
  8
0
100
AcDbBlockBegin
  2
*Paper_Space
 70
     0
 71
     0
 10
0.0
 20
0.0
 30
0.0
  3
*Paper_Space
  1

  0
ENDBLK
  5
1D
330
1B
100
AcDbEntity
 67
     1
  8
0
100
AcDbBlockEnd
  0
BLOCK
  5
24
330
23
100
AcDbEntity
  8
0
100
AcDbBlockBegin
  2
*Paper_Space0
 70
     0
 71
     0
 10
0.0
 20
0.0
 30
0.0
  3
*Paper_Space0
  1

  0
ENDBLK
  5
25
330
23
100
AcDbEntity
  8
0
100
AcDbBlockEnd
  0
ENDSEC
  0
SECTION
  2
ENTITIES
  0
LINE
  5
33
330
1F
100
AcDbEntity
  8
PV
  6
Continuous
 62
     7
100
AcDbLine
 10
-2.38116186596403
 20
50.40001
 30
0.0
 11
-3.20385999999985
 21
50.40001
 31
0.0
  0
LINE
  5
34
330
1F
100
AcDbEntity
  8
PV
  6
Continuous
 62
     7
100
AcDbLine
 10
-1.55407338256805
 20
62.9029756673913
 30
0.0
 11
2.59993464101513
 21
47.40001
 31
0.0
  0
LINE
  5
35
330
1F
100
AcDbEntity
  8
PV
  6
Continuous
 62
     7
100
AcDbLine
 10
-3.49326410291405
 20
64.40001000000001
 30
0.0
 11
-72.39999999999998
 21
64.40001000000001
 31
0.0
  0
LINE
  5
36
330
1F
100
AcDbEntity
  8
PV
  6
Continuous
 62
     7
100
AcDbLine
 10
-1.59956296872497
 20
53.41370485928424
 30
0.0
 11
-1.37258022437595
 21
52.56654083743304
 31
0.0
  0
LINE
  5
37
330
1F
100
AcDbEntity
  8
PV
  6
Continuous
 62
     7
100
AcDbLine
 10
-4.15723060676896
 20
61.02701375916682
 30
0.0
 11
-3.35401999999999
 21
58.0294
 31
0.0
  0
LINE
  5
38
330
1F
100
AcDbEntity
  8
PV
  6
Continuous
 62
     7
100
AcDbLine
 10
-4.643668438438
 20
61.40001
 30
0.0
 11
-27.40000499999997
 21
61.40001
 31
0.0
  0
LINE
  5
39
330
1F
100
AcDbEntity
  8
PV
  6
Continuous
 62
     7
100
AcDbLine
 10
-9.82865914604895
 20
55.53215254199623
 30
0.0
 11
-10.43464999999992
 21
53.2706
 31
0.0
  0
LINE
  5
3A
330
1F
100
AcDbEntity
  8
PV
  6
Continuous
 62
     7
100
AcDbLine
 10
-25.76755543170498
 20
26.30233635944117
 30
0.0
 11
-22.40000499999997
 21
25.40001
 31
0.0
  0
LINE
  5
3B
330
1F
100
AcDbEntity
  8
PV
  6
Continuous
 62
     7
100
AcDbLine
 10
-26.40000499999997
 20
25.81736156156137
 30
0.0
 11
-26.40000499999997
 21
4.99445088408544
 31
0.0
  0
LINE
  5
3C
102
{ACAD_REACTORS
330
1AD
330
1AD
102
}
330
1F
100
AcDbEntity
  8
PV
  6
Continuous
 62
     7
100
AcDbLine
 10
-31.66659699999991
 20
46.53848
 30
0.0
 11
-31.6666009999999
 21
25.53848
 31
0.0
  0
LINE
  5
3D
102
{ACAD_REACTORS
330
1AD
330
1AD
102
}
330
1F
100
AcDbEntity
  8
PV
  6
Continuous
 62
     7
100
AcDbLine
 10
-58.1665999999999
 20
47.0385
 30
0.0
 11
-32.16659699999991
 21
47.03848
 31
0.0
  0
LINE
  5
3E
102
{ACAD_REACTORS
330
1AD
330
1AD
102
}
330
1F
100
AcDbEntity
  8
PV
  6
Continuous
 62
     7
100
AcDbLine
 10
-58.6665999999999
 20
46.5385
 30
0.0
 11
-58.6665999999999
 21
25.53849869139156
 31
0.0
  0
LINE
  5
3F
102
{ACAD_REACTORS
330
1AD
330
1AD
102
}
330
1F
100
AcDbEntity
  8
PV
  6
Continuous
 62
     7
100
AcDbLine
 10
-60.1665999999999
 20
46.5385
 30
0.0
 11
-60.1665999999999
 21
25.53849869139184
 31
0.0
  0
LINE
  5
40
102
{ACAD_REACTORS
330
1AD
330
1AD
102
}
330
1F
100
AcDbEntity
  8
PV
  6
Continuous
 62
     7
100
AcDbLine
 10
-58.16659846153698
 20
48.5385000000142
 30
0.0
 11
-32.16659546153687
 21
48.53847999999959
 31
0.0
  0
LINE
  5
41
102
{ACAD_REACTORS
330
1AD
330
1AD
102
}
330
1F
100
AcDbEntity
  8
PV
  6
Continuous
 62
     7
100
AcDbLine
 10
-30.16659699999991
 20
46.53848
 30
0.0
 11
-30.1666009999999
 21
25.53848
 31
0.0
  0
LINE
  5
42
330
1F
100
AcDbEntity
  8
PV
  6
Continuous
 62
     7
100
AcDbLine
 10
-70.37322999999992
 20
15.30001
 30
0.0
 11
-71.89999999999998
 21
14.41852999999999
 31
0.0
  0
LINE
  5
43
330
1F
100
AcDbEntity
  8
PV
  6
Continuous
 62
     7
100
AcDbLine
 10
-70.37322999999992
 20
15.30001
 30
0.0
 11
-69.39999999999998
 21
15.30001
 31
0.0
  0
LINE
  5
44
330
1F
100
AcDbEntity
  8
PV
  6
Continuous
 62
     7
100
AcDbLine
 10
-70.37316535803393
 20
51.5
 30
0.0
 11
-71.89999999999998
 21
52.38149422665558
 31
0.0
  0
LINE
  5
45
330
1F
100
AcDbEntity
  8
PV
  6
Continuous
 62
     7
100
AcDbLine
 10
-69.39999999999998
 20
51.5
 30
0.0
 11
-70.37316535803393
 21
51.5
 31
0.0
  0
LINE
  5
46
330
1F
100
AcDbEntity
  8
PV
  6
Continuous
 62
     7
100
AcDbLine
 10
-71.89999999999998
 20
11.40001000000001
 30
0.0
 11
-71.89999999999998
 21
14.41852999999999
 31
0.0
  0
LINE
  5
47
330
1F
100
AcDbEntity
  8
PV
  6
Continuous
 62
     7
100
AcDbLine
 10
-71.89999999999998
 20
35.53398
 30
0.0
 11
-71.89999999999998
 21
31.26603422646666
 31
0.0
  0
LINE
  5
48
330
1F
100
AcDbEntity
  8
PV
  6
Continuous
 62
     7
100
AcDbLine
 10
-71.89999999999998
 20
55.40001
 30
0.0
 11
-71.89999999999998
 21
52.38149422665558
 31
0.0
  0
LINE
  5
49
330
1F
100
AcDbEntity
  8
PV
  6
Continuous
 62
     7
100
AcDbLine
 10
-47.39999999999986
 20
50.40001
 30
0.0
 11
-61.19999999999993
 21
50.40001
 31
0.0
  0
LINE
  5
4A
330
1F
100
AcDbEntity
  8
PV
  6
Continuous
 62
     7
100
AcDbLine
 10
-47.39999999999986
 20
61.40001
 30
0.0
 11
-61.19999999999993
 21
61.40001
 31
0.0
  0
LINE
  5
4B
330
1F
100
AcDbEntity
  8
PV
  6
Continuous
 62
     7
100
AcDbLine
 10
-46.89999999999986
 20
60.90001
 30
0.0
 11
-46.89999999999986
 21
50.90001
 31
0.0
  0
LINE
  5
4C
330
1F
100
AcDbEntity
  8
PV
  6
Continuous
 62
     7
100
AcDbLine
 10
-45.39999999999986
 20
60.90001
 30
0.0
 11
-45.39999999999986
 21
50.90001
 31
0.0
  0
LINE
  5
4D
330
1F
100
AcDbEntity
  8
PV
  6
Continuous
 62
     7
100
AcDbLine
 10
-3.20385999999985
 20
51.90001
 30
0.0
 11
-1.37258022437595
 21
52.56654083743304
 31
0.0
  0
LINE
  5
4E
330
1F
100
AcDbEntity
  8
PV
  6
Continuous
 62
     7
100
AcDbLine
 10
-29.40000499999997
 20
8.90002066025014
 30
0.0
 11
-29.40000499999997
 21
5.40001000000001
 31
0.0
  0
LINE
  5
4F
330
1F
100
AcDbEntity
  8
PV
  6
Continuous
 62
     7
100
AcDbLine
 10
-29.40000499999997
 20
12.90001000000001
 30
0.0
 11
-29.40000499999997
 21
10.90001000000001
 31
0.0
  0
LINE
  5
50
330
1F
100
AcDbEntity
  8
PV
  6
Continuous
 62
     7
100
AcDbLine
 10
-31.40000499999997
 20
10.90001000000001
 30
0.0
 11
-31.40000499999997
 21
9.43592060769984
 31
0.0
  0
LINE
  5
51
330
1F
100
AcDbEntity
  8
PV
  6
Continuous
 62
     7
100
AcDbLine
 10
-29.40000499999997
 20
14.90002241154518
 30
0.0
 11
-31.40000499999997
 21
14.36412348334304
 31
0.0
  0
LINE
  5
52
330
1F
100
AcDbEntity
  8
PV
  6
Continuous
 62
     7
100
AcDbLine
 10
-29.40000499999997
 20
8.90002066025014
 30
0.0
 11
-31.40000499999997
 21
9.43592060769984
 31
0.0
  0
LINE
  5
53
330
1F
100
AcDbEntity
  8
PV
  6
Continuous
 62
     7
100
AcDbLine
 10
-29.40000499999997
 20
10.90001000000001
 30
0.0
 11
-31.40000499999997
 21
10.90001000000001
 31
0.0
  0
LINE
  5
54
330
1F
100
AcDbEntity
  8
PV
  6
Continuous
 62
     7
100
AcDbLine
 10
-29.40000499999997
 20
12.90001000000001
 30
0.0
 11
-31.40000499999997
 21
12.90001000000001
 31
0.0
  0
LINE
  5
55
330
1F
100
AcDbEntity
  8
PV
  6
Continuous
 62
     7
100
AcDbLine
 10
-31.40000499999997
 20
14.36412348334304
 30
0.0
 11
-31.40000499999997
 21
12.90001000000001
 31
0.0
  0
LINE
  5
56
330
1F
100
AcDbEntity
  8
PV
  6
Continuous
 62
     7
100
AcDbLine
 10
-61.69999999999993
 20
28.20001
 30
0.0
 11
-61.69999999999993
 21
23.70001
 31
0.0
  0
LINE
  5
57
330
1F
100
AcDbEntity
  8
PV
  6
Continuous
 62
     7
100
AcDbLine
 10
-61.69999999999993
 20
41.90001
 30
0.0
 11
-61.69999999999993
 21
30.20001
 31
0.0
  0
LINE
  5
58
330
1F
100
AcDbEntity
  8
PV
  6
Continuous
 62
     7
100
AcDbLine
 10
-61.69999999999993
 20
41.90001
 30
0.0
 11
-60.58080718593692
 21
42.45061359774917
 31
0.0
  0
LINE
  5
59
330
1F
100
AcDbEntity
  8
PV
  6
Continuous
 62
     7
100
AcDbLine
 10
-61.69999999999993
 20
43.89999
 30
0.0
 11
-60.58085153987997
 21
43.34942803413645
 31
0.0
  0
LINE
  5
5A
330
1F
100
AcDbEntity
  8
PV
  6
Continuous
 62
     7
100
AcDbLine
 10
-61.69999999999993
 20
28.20001
 30
0.0
 11
-60.58237716340193
 21
28.74985119637252
 31
0.0
  0
LINE
  5
5B
330
1F
100
AcDbEntity
  8
PV
  6
Continuous
 62
     7
100
AcDbLine
 10
-61.69999999999993
 20
30.20001
 30
0.0
 11
-60.58237716340295
 21
29.65016880362776
 31
0.0
  0
LINE
  5
5C
330
1F
100
AcDbEntity
  8
PV
  6
Continuous
 62
     7
100
AcDbLine
 10
-29.40000499999997
 20
48.40001
 30
0.0
 11
-29.40000499999997
 21
23.70001000000001
 31
0.0
  0
LINE
  5
5D
330
1F
100
AcDbEntity
  8
PV
  6
Continuous
 62
     7
100
AcDbLine
 10
-29.40000499999997
 20
21.20001000000001
 30
0.0
 11
-29.40000499999997
 21
14.90002241154518
 31
0.0
  0
LINE
  5
5E
330
1F
100
AcDbEntity
  8
PV
  6
Continuous
 62
     7
100
AcDbLine
 10
-61.69999999999993
 20
21.20001000000001
 30
0.0
 11
-61.69999999999993
 21
5.40001000000001
 31
0.0
  0
LINE
  5
5F
330
1F
100
AcDbEntity
  8
PV
  6
Continuous
 62
     7
100
AcDbLine
 10
-61.69999999999993
 20
48.40001
 30
0.0
 11
-61.69999999999993
 21
43.89999
 31
0.0
  0
LINE
  5
60
330
1F
100
AcDbEntity
  8
PV
  6
Continuous
 62
     7
100
AcDbLine
 10
-29.90000499999997
 20
21.70001000000001
 30
0.0
 11
-61.19999999999993
 21
21.70001000000001
 31
0.0
  0
LINE
  5
61
330
1F
100
AcDbEntity
  8
PV
  6
Continuous
 62
     7
100
AcDbLine
 10
-29.90000499999997
 20
48.90001
 30
0.0
 11
-61.19999999999993
 21
48.90001
 31
0.0
  0
LINE
  5
62
330
1F
100
AcDbEntity
  8
PV
  6
Continuous
 62
     7
100
AcDbLine
 10
-29.90000499999997
 20
50.40001
 30
0.0
 11
-44.89999999999986
 21
50.40001
 31
0.0
  0
LINE
  5
63
330
1F
100
AcDbEntity
  8
PV
  6
Continuous
 62
     7
100
AcDbLine
 10
-27.90000499999997
 20
60.90001
 30
0.0
 11
-27.90000499999997
 21
53.40001
 31
0.0
  0
LINE
  5
64
330
1F
100
AcDbEntity
  8
PV
  6
Continuous
 62
     7
100
AcDbLine
 10
-29.90000499999997
 20
61.40001
 30
0.0
 11
-44.89999999999986
 21
61.40001
 31
0.0
  0
LINE
  5
65
330
1F
100
AcDbEntity
  8
PV
  6
Continuous
 62
     7
100
AcDbLine
 10
-61.69999999999993
 20
60.90001
 30
0.0
 11
-61.69999999999993
 21
50.90001
 31
0.0
  0
LINE
  5
66
330
1F
100
AcDbEntity
  8
PV
  6
Continuous
 62
     7
100
AcDbLine
 10
-29.40000499999997
 20
60.90001
 30
0.0
 11
-29.40000499999997
 21
50.90001
 31
0.0
  0
LINE
  5
67
330
1F
100
AcDbEntity
  8
PV
  6
Continuous
 62
     7
100
AcDbLine
 10
-29.40000499999997
 20
5.40001000000001
 30
0.0
 11
-61.69999999999993
 21
5.40001000000001
 31
0.0
  0
LINE
  5
68
330
1F
100
AcDbEntity
  8
PV
  6
Continuous
 62
     7
100
AcDbLine
 10
-24.10000999999988
 20
2.40001000000001
 30
0.0
 11
-72.39999999999998
 21
2.40001000000001
 31
0.0
  0
LINE
  5
69
330
1F
100
AcDbEntity
  8
PV
  6
Continuous
 62
     7
100
AcDbLine
 10
-26.40000499999997
 20
31.68892
 30
0.0
 11
-26.40000499999997
 21
29.1111
 31
0.0
  0
LINE
  5
6A
330
1F
100
AcDbEntity
  8
PV
  6
Continuous
 62
     7
100
AcDbLine
 10
-26.40000499999997
 20
50.40001
 30
0.0
 11
-26.40000499999997
 21
35.40001
 31
0.0
  0
LINE
  5
6B
330
1F
100
AcDbEntity
  8
PV
  6
Continuous
 62
     7
100
AcDbLine
 10
-21.44594434489795
 20
27.40002553735982
 30
0.0
 11
-26.02768145899199
 21
28.62767604339533
 31
0.0
  0
LINE
  5
6C
330
1F
100
AcDbEntity
  8
PV
  6
Continuous
 62
     7
100
AcDbLine
 10
-21.44594618968199
 20
33.39999128889706
 30
0.0
 11
-26.02940399999989
 21
32.17188
 31
0.0
  0
LINE
  5
6D
330
1F
100
AcDbEntity
  8
PV
  6
Continuous
 62
     7
100
AcDbLine
 10
-21.44594434489795
 20
27.40002553735982
 30
0.0
 11
-20.89999799999987
 21
28.90001
 31
0.0
  0
LINE
  5
6E
330
1F
100
AcDbEntity
  8
PV
  6
Continuous
 62
     7
100
AcDbLine
 10
-21.44594618968199
 20
33.39999128889706
 30
0.0
 11
-20.89999499999999
 21
31.90001
 31
0.0
  0
LINE
  5
6F
330
1F
100
AcDbEntity
  8
PV
  6
Continuous
 62
     7
100
AcDbLine
 10
-22.40000499999997
 20
23.40001
 30
0.0
 11
-22.40000499999997
 21
25.40001
 31
0.0
  0
LINE
  5
70
330
1F
100
AcDbEntity
  8
PV
  6
Continuous
 62
     7
100
AcDbLine
 10
-19.40000499999997
 20
28.90001
 30
0.0
 11
-19.40000499999997
 21
22.90001
 31
0.0
  0
LINE
  5
71
330
1F
100
AcDbEntity
  8
PV
  6
Continuous
 62
     7
100
AcDbLine
 10
-19.40000499999997
 20
35.40001
 30
0.0
 11
-19.40000499999997
 21
31.90001
 31
0.0
  0
LINE
  5
72
330
1F
100
AcDbEntity
  8
PV
  6
Continuous
 62
     7
100
AcDbLine
 10
-19.40000499999997
 20
28.90001
 30
0.0
 11
-20.89999799999987
 21
28.90001
 31
0.0
  0
LINE
  5
73
330
1F
100
AcDbEntity
  8
PV
  6
Continuous
 62
     7
100
AcDbLine
 10
-19.40000499999997
 20
31.90001
 30
0.0
 11
-20.89999499999999
 21
31.90001
 31
0.0
  0
LINE
  5
74
330
1F
100
AcDbEntity
  8
PV
  6
Continuous
 62
     7
100
AcDbLine
 10
-19.40000499999997
 20
22.90001
 30
0.0
 11
-21.90000499999997
 21
22.90001
 31
0.0
  0
LINE
  5
75
330
1F
100
AcDbEntity
  8
PV
  6
Continuous
 62
     7
100
AcDbLine
 10
-19.40000499999997
 20
35.40001
 30
0.0
 11
-26.40000499999997
 21
35.40001
 31
0.0
  0
LINE
  5
76
330
1F
100
AcDbEntity
  8
PV
  6
Continuous
 62
     7
100
AcDbLine
 10
-24.10000999999988
 20
5.40000029469515
 30
0.0
 11
-24.10000999999988
 21
2.40001000000001
 31
0.0
  0
LINE
  5
77
330
1F
100
AcDbEntity
  8
PV
  6
Continuous
 62
     7
100
AcDbLine
 10
-26.40000499999997
 20
4.99445088408544
 30
0.0
 11
-24.10000999999988
 21
5.40000029469515
 31
0.0
  0
LINE
  5
78
330
1F
100
AcDbEntity
  8
PV
  6
Continuous
 62
     7
100
AcDbLine
 10
-10.91763999999989
 20
52.90001
 30
0.0
 11
-27.40000499999997
 21
52.90001
 31
0.0
  0
LINE
  5
79
330
1F
100
AcDbEntity
  8
PV
  6
Continuous
 62
     7
100
AcDbLine
 10
-6.20385999999985
 20
50.40001
 30
0.0
 11
-26.40000499999997
 21
50.40001
 31
0.0
  0
LINE
  5
7A
330
1F
100
AcDbEntity
  8
PV
  6
Continuous
 62
     7
100
AcDbLine
 10
-7.40993000000003
 20
54.90001
 30
0.0
 11
-8.03518066417905
 21
52.56653752124314
 31
0.0
  0
LINE
  5
7B
330
1F
100
AcDbEntity
  8
PV
  6
Continuous
 62
     7
100
AcDbLine
 10
-3.83699000000001
 20
57.40001
 30
0.0
 11
-7.40989999999988
 21
57.40001
 31
0.0
  0
LINE
  5
7C
330
1F
100
AcDbEntity
  8
PV
  6
Continuous
 62
     7
100
AcDbLine
 10
-3.52900589708588
 20
54.90001
 30
0.0
 11
-3.53593410291387
 21
54.90001
 31
0.0
  0
LINE
  5
7D
330
1F
100
AcDbEntity
  8
PV
  6
Continuous
 62
     7
100
AcDbLine
 10
-8.03518066417905
 20
52.56653752124314
 30
0.0
 11
-6.20385999999985
 21
51.89998272050151
 31
0.0
  0
LINE
  5
7E
330
1F
100
AcDbEntity
  8
PV
  6
Continuous
 62
     7
100
AcDbLine
 10
-6.20385999999985
 20
51.89998272050151
 30
0.0
 11
-6.20385999999985
 21
50.40001
 31
0.0
  0
LINE
  5
7F
330
1F
100
AcDbEntity
  8
PV
  6
Continuous
 62
     7
100
AcDbLine
 10
-3.20385999999985
 20
51.90001
 30
0.0
 11
-3.20385999999985
 21
50.40001
 31
0.0
  0
LINE
  5
80
330
1F
100
AcDbEntity
  8
PV
  6
Continuous
 62
     7
100
AcDbLine
 10
2.59993464101513
 20
47.40001
 30
0.0
 11
1.09994845308711
 21
47.40001
 31
0.0
  0
LINE
  5
81
330
1F
100
AcDbEntity
  8
PV
  6
Continuous
 62
     7
100
AcDbLine
 10
-72.39999999999998
 20
6.90001000000001
 30
0.0
 11
-72.39999999999998
 21
2.40001000000001
 31
0.0
  0
LINE
  5
82
330
1F
100
AcDbEntity
  8
PV
  6
Continuous
 62
     7
100
AcDbLine
 10
-72.39999999999998
 20
64.40001000000001
 30
0.0
 11
-72.39999999999998
 21
59.90001
 31
0.0
  0
LINE
  5
83
330
1F
100
AcDbEntity
  8
PV
  6
Continuous
 62
     7
100
AcDbLine
 10
-70.39999999999998
 20
36.40001
 30
0.0
 11
-71.89999999999998
 21
35.53398
 31
0.0
  0
LINE
  5
84
330
1F
100
AcDbEntity
  8
PV
  6
Continuous
 62
     7
100
AcDbLine
 10
-70.40000999999995
 20
30.40000999999999
 30
0.0
 11
-71.89999999999998
 21
31.26603422646666
 31
0.0
  0
LINE
  5
85
330
1F
100
AcDbEntity
  8
PV
  6
Continuous
 62
     7
100
AcDbLine
 10
-69.39999999999998
 20
5.40001000000001
 30
0.0
 11
-69.39999999999998
 21
6.90001000000001
 31
0.0
  0
LINE
  5
86
330
1F
100
AcDbEntity
  8
PV
  6
Continuous
 62
     7
100
AcDbLine
 10
-64.69999999999993
 20
5.40001000000001
 30
0.0
 11
-69.39999999999998
 21
5.40001000000001
 31
0.0
  0
LINE
  5
87
330
1F
100
AcDbEntity
  8
PV
  6
Continuous
 62
     7
100
AcDbLine
 10
-64.69999999999993
 20
11.40001000000001
 30
0.0
 11
-64.69999999999993
 21
5.40001000000001
 31
0.0
  0
LINE
  5
88
330
1F
100
AcDbEntity
  8
PV
  6
Continuous
 62
     7
100
AcDbLine
 10
-69.39999999999998
 20
6.90001000000001
 30
0.0
 11
-72.39999999999998
 21
6.90001000000001
 31
0.0
  0
LINE
  5
89
330
1F
100
AcDbEntity
  8
PV
  6
Continuous
 62
     7
100
AcDbLine
 10
-64.69999999999993
 20
11.40001000000001
 30
0.0
 11
-71.89999999999998
 21
11.40001000000001
 31
0.0
  0
LINE
  5
8A
330
1F
100
AcDbEntity
  8
PV
  6
Continuous
 62
     7
100
AcDbLine
 10
-69.39999999999998
 20
13.90001
 30
0.0
 11
-64.69999999999993
 21
13.90001
 31
0.0
  0
LINE
  5
8B
330
1F
100
AcDbEntity
  8
PV
  6
Continuous
 62
     7
100
AcDbLine
 10
-69.39999999999998
 20
15.30001
 30
0.0
 11
-69.39999999999998
 21
13.90001
 31
0.0
  0
LINE
  5
8C
330
1F
100
AcDbEntity
  8
PV
  6
Continuous
 62
     7
100
AcDbLine
 10
-69.39999999999998
 20
30.40000999999999
 30
0.0
 11
-70.40000999999995
 21
30.40000999999999
 31
0.0
  0
LINE
  5
8D
330
1F
100
AcDbEntity
  8
PV
  6
Continuous
 62
     7
100
AcDbLine
 10
-69.39999999999998
 20
32.15001
 30
0.0
 11
-69.39999999999998
 21
30.40000999999999
 31
0.0
  0
LINE
  5
8E
330
1F
100
AcDbEntity
  8
PV
  6
Continuous
 62
     7
100
AcDbLine
 10
-64.69999999999993
 20
32.15001
 30
0.0
 11
-64.69999999999993
 21
13.90001
 31
0.0
  0
LINE
  5
8F
330
1F
100
AcDbEntity
  8
PV
  6
Continuous
 62
     7
100
AcDbLine
 10
-64.69999999999993
 20
34.65001
 30
0.0
 11
-64.69999999999993
 21
52.90001
 31
0.0
  0
LINE
  5
90
330
1F
100
AcDbEntity
  8
PV
  6
Continuous
 62
     7
100
AcDbLine
 10
-64.69999999999993
 20
32.15001
 30
0.0
 11
-69.39999999999998
 21
32.15001
 31
0.0
  0
LINE
  5
91
330
1F
100
AcDbEntity
  8
PV
  6
Continuous
 62
     7
100
AcDbLine
 10
-69.39999999999998
 20
34.65001
 30
0.0
 11
-64.69999999999993
 21
34.65001
 31
0.0
  0
LINE
  5
92
330
1F
100
AcDbEntity
  8
PV
  6
Continuous
 62
     7
100
AcDbLine
 10
-69.39999999999998
 20
36.40001
 30
0.0
 11
-69.39999999999998
 21
34.65001
 31
0.0
  0
LINE
  5
93
330
1F
100
AcDbEntity
  8
PV
  6
Continuous
 62
     7
100
AcDbLine
 10
-70.39999999999998
 20
36.40001
 30
0.0
 11
-69.39999999999998
 21
36.40001
 31
0.0
  0
LINE
  5
94
330
1F
100
AcDbEntity
  8
PV
  6
Continuous
 62
     7
100
AcDbLine
 10
-69.39999999999998
 20
52.90001
 30
0.0
 11
-69.39999999999998
 21
51.5
 31
0.0
  0
LINE
  5
95
330
1F
100
AcDbEntity
  8
PV
  6
Continuous
 62
     7
100
AcDbLine
 10
-64.69999999999993
 20
52.90001
 30
0.0
 11
-69.39999999999998
 21
52.90001
 31
0.0
  0
LINE
  5
96
330
1F
100
AcDbEntity
  8
PV
  6
Continuous
 62
     7
100
AcDbLine
 10
-64.69999999999993
 20
55.40001
 30
0.0
 11
-64.69999999999993
 21
61.40001
 31
0.0
  0
LINE
  5
97
330
1F
100
AcDbEntity
  8
PV
  6
Continuous
 62
     7
100
AcDbLine
 10
-71.89999999999998
 20
55.40001
 30
0.0
 11
-64.69999999999993
 21
55.40001
 31
0.0
  0
LINE
  5
98
330
1F
100
AcDbEntity
  8
PV
  6
Continuous
 62
     7
100
AcDbLine
 10
-69.39999999999998
 20
59.90001
 30
0.0
 11
-72.39999999999998
 21
59.90001
 31
0.0
  0
LINE
  5
99
330
1F
100
AcDbEntity
  8
PV
  6
Continuous
 62
     7
100
AcDbLine
 10
-69.39999999999998
 20
61.40001
 30
0.0
 11
-69.39999999999998
 21
59.90001
 31
0.0
  0
LINE
  5
9A
330
1F
100
AcDbEntity
  8
PV
  6
Continuous
 62
     7
100
AcDbLine
 10
-64.69999999999993
 20
61.40001
 30
0.0
 11
-69.39999999999998
 21
61.40001
 31
0.0
  0
LINE
  5
9B
330
1F
100
AcDbEntity
  8
PV
  6
Continuous
 62
     7
100
AcDbLine
 10
-3.53593410291387
 20
54.90001
 30
0.0
 11
-7.40993000000003
 21
54.90001
 31
0.0
  0
LINE
  5
9C
330
1F
100
AcDbEntity
  8
PV
  6
Continuous
 62
     7
100
AcDbLine
 10
0.23879452190408
 20
48.89158433328416
 30
0.0
 11
1.09994845308711
 21
47.40001
 31
0.0
  0
LINE
  5
9D
330
1F
100
AcDbEntity
  8
PV
  6
Continuous
 62
     7
100
AcDbLine
 10
53.31215253258915
 20
-9.70368588506984
 30
0.0
 11
50.89999000000012
 21
-10.12902647336708
 31
0.0
  0
LINE
  5
9E
330
1F
100
AcDbEntity
  8
PV
  6
Continuous
 62
     7
100
AcDbLine
 10
43.90000997423203
 20
-3.11096837381621
 30
0.0
 11
43.89999000000012
 21
-11.60001999999999
 31
0.0
  0
LINE
  5
9F
330
1F
100
AcDbEntity
  8
PV
  6
Continuous
 62
     7
100
AcDbLine
 10
40.97854883649302
 20
31.89996000000001
 30
0.0
 11
43.40002000000004
 21
31.89996000000001
 31
0.0
  0
LINE
  5
A0
330
1F
100
AcDbEntity
  8
PV
  6
Continuous
 62
     7
100
AcDbLine
 10
40.87993918675215
 20
31.82500857340184
 30
0.0
 11
40.35646999999995
 21
29.87135000000001
 31
0.0
  0
LINE
  5
A1
330
1F
100
AcDbEntity
  8
PV
  6
Continuous
 62
     7
100
AcDbLine
 10
38.8672090968721
 20
31.82434323931979
 30
0.0
 11
39.39050999999995
 21
29.87137000000001
 31
0.0
  0
LINE
  5
A2
330
1F
100
AcDbEntity
  8
PV
  6
Continuous
 62
     7
100
AcDbLine
 10
51.42022822585204
 20
33.32446574512511
 30
0.0
 11
52.20383732054211
 21
30.39996000000001
 31
0.0
  0
LINE
  5
A3
330
1F
100
AcDbEntity
  8
PV
  6
Continuous
 62
     7
100
AcDbLine
 10
51.32228003750106
 20
33.39996000000001
 30
0.0
 11
46.90002000000004
 21
33.39996000000001
 31
0.0
  0
LINE
  5
A4
330
1F
100
AcDbEntity
  8
PV
  6
Continuous
 62
     7
100
AcDbLine
 10
66.61060676260809
 20
47.39995000149896
 30
0.0
 11
-3.10000471014496
 21
47.39998000001064
 31
0.0
  0
LINE
  5
A5
330
1F
100
AcDbEntity
  8
PV
  6
Continuous
 62
     7
100
AcDbLine
 10
60.44111109707114
 20
38.5446435891374
 30
0.0
 11
59.83176341003809
 21
36.27055233189417
 31
0.0
  0
LINE
  5
A6
330
1F
100
AcDbEntity
  8
PV
  6
Continuous
 62
     7
100
AcDbLine
 10
67.35595156156114
 20
37.89995000000002
 30
0.0
 11
63.057574859135
 21
37.89995879159093
 31
0.0
  0
LINE
  5
A7
330
1F
100
AcDbEntity
  8
PV
  6
Continuous
 62
     7
100
AcDbLine
 10
68.2802236170171
 20
35.89288756575166
 30
0.0
 11
67.84303308370113
 21
37.52447690870064
 31
0.0
  0
LINE
  5
A8
330
1F
100
AcDbEntity
  8
PV
  6
Continuous
 62
     7
100
AcDbLine
 10
7.47986500075808
 20
31.82477904915048
 30
0.0
 11
6.95729651485999
 21
29.87452923270253
 31
0.0
  0
LINE
  5
A9
330
1F
100
AcDbEntity
  8
PV
  6
Continuous
 62
     7
100
AcDbLine
 10
7.57853890060414
 20
31.89997999885304
 30
0.0
 11
38.76923010160795
 21
31.8999600006411
 31
0.0
  0
LINE
  5
AA
330
1F
100
AcDbEntity
  8
PV
  6
Continuous
 62
     7
100
AcDbLine
 10
5.46729808090299
 20
31.8240284339788
 30
0.0
 11
5.99051000000009
 21
29.87135000000001
 31
0.0
  0
LINE
  5
AB
330
1F
100
AcDbEntity
  8
PV
  6
Continuous
 62
     7
100
AcDbLine
 10
0.00000998374503
 20
30.90669250562614
 30
0.0
 11
0.0
 21
20.0
 31
0.0
  0
LINE
  5
AC
330
1F
100
AcDbEntity
  8
PV
  6
Continuous
 62
     7
100
AcDbLine
 10
2.57585198205106
 20
14.37969324186179
 30
0.0
 11
4.12941999999998
 21
13.96342000000001
 31
0.0
  0
LINE
  5
AD
330
1F
100
AcDbEntity
  8
PV
  6
Continuous
 62
     7
100
AcDbLine
 10
-0.36874846167984
 20
12.36875564033152
 30
0.0
 11
0.24644000000012
 21
11.75355100000001
 31
0.0
  0
LINE
  5
AE
330
1F
100
AcDbEntity
  8
PV
  6
Continuous
 62
     7
100
AcDbLine
 10
-0.39999999999986
 20
10.35719082179344
 30
0.0
 11
-0.39999999999986
 21
6.30000400000001
 31
0.0
  0
LINE
  5
AF
330
1F
100
AcDbEntity
  8
PV
  6
Continuous
 62
     7
100
AcDbLine
 10
2.57610823243203
 20
8.42037141271651
 30
0.0
 11
4.12941000000001
 21
8.83656800000001
 31
0.0
  0
LINE
  5
B0
330
1F
100
AcDbEntity
  8
PV
  6
Continuous
 62
     7
100
AcDbLine
 10
2.5
 20
8.32192439610898
 30
0.0
 11
2.5
 21
6.29999800000001
 31
0.0
  0
LINE
  5
B1
330
1F
100
AcDbEntity
  8
PV
  6
Continuous
 62
     7
100
AcDbLine
 10
-21.73329276006598
 20
-3.47255157235622
 30
0.0
 11
-22.00629172305389
 21
-4.49140618229771
 31
0.0
  0
LINE
  5
B2
330
1F
100
AcDbEntity
  8
PV
  6
Continuous
 62
     7
100
AcDbLine
 10
-13.28765140386099
 20
-10.89974168515812
 30
0.0
 11
-13.11987336786092
 21
-11.52588283767884
 31
0.0
  0
LINE
  5
B3
330
1F
100
AcDbEntity
  8
PV
  6
Continuous
 62
     7
100
AcDbLine
 10
-14.67818317820706
 20
-11.59998999999999
 30
0.0
 11
-24.99353997470985
 21
-11.59999000000015
 31
0.0
  0
LINE
  5
B4
330
1F
100
AcDbEntity
  8
PV
  6
Continuous
 62
     7
100
AcDbLine
 10
53.90001000000007
 20
23.39996000000001
 30
0.0
 11
53.89999000000012
 21
-4.60002799999999
 31
0.0
  0
LINE
  5
B5
330
1F
100
AcDbEntity
  8
PV
  6
Continuous
 62
     7
100
AcDbLine
 10
-28.60000999999988
 20
-0.59998999999999
 30
0.0
 11
-28.59998700000006
 21
-2.09998699999999
 31
0.0
  0
LINE
  5
B6
330
1F
100
AcDbEntity
  8
PV
  6
Continuous
 62
     7
100
AcDbLine
 10
-25.60000100000002
 20
-2.09996899999999
 30
0.0
 11
-25.60001000002399
 21
-0.59998599999288
 31
0.0
  0
LINE
  5
B7
330
1F
100
AcDbEntity
  8
PV
  6
Continuous
 62
     7
100
AcDbLine
 10
71.89996999999994
 20
33.39995000000001
 30
0.0
 11
68.54887021880995
 21
45.90646763375383
 31
0.0
  0
LINE
  5
B8
330
1F
100
AcDbEntity
  8
PV
  6
Continuous
 62
     7
100
AcDbLine
 10
53.90002000000004
 20
33.39996000000001
 30
0.0
 11
53.90001000000007
 21
30.89996000000001
 31
0.0
  0
LINE
  5
B9
330
1F
100
AcDbEntity
  8
PV
  6
Continuous
 62
     7
100
AcDbLine
 10
46.90002000000004
 20
33.39996000000001
 30
0.0
 11
46.90001000000007
 21
23.39998000000001
 31
0.0
  0
LINE
  5
BA
330
1F
100
AcDbEntity
  8
PV
  6
Continuous
 62
     7
100
AcDbLine
 10
71.89996999999994
 20
33.39995000000001
 30
0.0
 11
66.90002000000004
 21
33.39995000000001
 31
0.0
  0
LINE
  5
BB
330
1F
100
AcDbEntity
  8
PV
  6
Continuous
 62
     7
100
AcDbLine
 10
53.90001000000007
 20
23.39996000000001
 30
0.0
 11
46.90001000000007
 21
23.39998000000001
 31
0.0
  0
LINE
  5
BC
330
1F
100
AcDbEntity
  8
PV
  6
Continuous
 62
     7
100
AcDbLine
 10
53.40001000000007
 20
30.39996000000001
 30
0.0
 11
52.20383732054211
 21
30.39996000000001
 31
0.0
  0
LINE
  5
BD
330
1F
100
AcDbEntity
  8
PV
  6
Continuous
 62
     7
100
AcDbLine
 10
50.90001000000007
 20
20.39998000000001
 30
0.0
 11
50.89999000000012
 21
-0.10002399999999
 31
0.0
  0
LINE
  5
BE
330
1F
100
AcDbEntity
  8
PV
  6
Continuous
 62
     7
100
AcDbLine
 10
50.89999000000012
 20
-11.60001999999999
 30
0.0
 11
46.89999000000012
 21
-11.60001999999999
 31
0.0
  0
LINE
  5
BF
330
1F
100
AcDbEntity
  8
PV
  6
Continuous
 62
     7
100
AcDbLine
 10
50.89999000000012
 20
-10.12902647336708
 30
0.0
 11
50.89999000000012
 21
-11.60001999999999
 31
0.0
  0
LINE
  5
C0
330
1F
100
AcDbEntity
  8
PV
  6
Continuous
 62
     7
100
AcDbLine
 10
53.89999000000012
 20
-10.19590999999999
 30
0.0
 11
53.89999000000012
 21
-14.60001999999999
 31
0.0
  0
LINE
  5
C1
330
1F
100
AcDbEntity
  8
PV
  6
Continuous
 62
     7
100
AcDbLine
 10
46.89999000000012
 20
-3.10002099999999
 30
0.0
 11
49.19999000000007
 21
-3.10002399999999
 31
0.0
  0
LINE
  5
C2
330
1F
100
AcDbEntity
  8
PV
  6
Continuous
 62
     7
100
AcDbLine
 10
49.19999000000007
 20
-4.60002399999999
 30
0.0
 11
53.89999000000012
 21
-4.60002799999999
 31
0.0
  0
LINE
  5
C3
330
1F
100
AcDbEntity
  8
PV
  6
Continuous
 62
     7
100
AcDbLine
 10
49.19999000000007
 20
-3.10002399999999
 30
0.0
 11
49.19999000000007
 21
-4.60002399999999
 31
0.0
  0
LINE
  5
C4
330
1F
100
AcDbEntity
  8
PV
  6
Continuous
 62
     7
100
AcDbLine
 10
46.89999000000012
 20
-3.10002099999999
 30
0.0
 11
46.89999000000012
 21
-11.60001999999999
 31
0.0
  0
LINE
  5
C5
330
1F
100
AcDbEntity
  8
PV
  6
Continuous
 62
     7
100
AcDbLine
 10
50.90001000000007
 20
20.39998000000001
 30
0.0
 11
46.90001000000007
 21
20.39998000000001
 31
0.0
  0
LINE
  5
C6
330
1F
100
AcDbEntity
  8
PV
  6
Continuous
 62
     7
100
AcDbLine
 10
46.89999000000012
 20
-0.10002099999999
 30
0.0
 11
50.89999000000012
 21
-0.10002399999999
 31
0.0
  0
LINE
  5
C7
330
1F
100
AcDbEntity
  8
PV
  6
Continuous
 62
     7
100
AcDbLine
 10
65.46300999999994
 20
44.39996000000001
 30
0.0
 11
52.40002000000004
 21
44.39996000000001
 31
0.0
  0
LINE
  5
C8
330
1F
100
AcDbEntity
  8
PV
  6
Continuous
 62
     7
100
AcDbLine
 10
49.90001000000007
 20
35.89998000000001
 30
0.0
 11
46.40000571428595
 21
35.89995999997553
 31
0.0
  0
LINE
  5
C9
330
1F
100
AcDbEntity
  8
PV
  6
Continuous
 62
     7
100
AcDbLine
 10
51.90001000000007
 20
36.39996000000001
 30
0.0
 11
51.90002000000004
 21
43.89996000000001
 31
0.0
  0
LINE
  5
CA
330
1F
100
AcDbEntity
  8
PV
  6
Continuous
 62
     7
100
AcDbLine
 10
50.40001000002599
 20
36.39997933333335
 30
0.0
 11
50.40002000002596
 21
43.89997933333335
 31
0.0
  0
LINE
  5
CB
330
1F
100
AcDbEntity
  8
PV
  6
Continuous
 62
     7
100
AcDbLine
 10
49.90002000000004
 20
44.39998000000001
 30
0.0
 11
1.07114999999999
 21
44.39998000000001
 31
0.0
  0
LINE
  5
CC
330
1F
100
AcDbEntity
  8
PV
  6
Continuous
 62
     7
100
AcDbLine
 10
63.90002000000004
 20
33.39996000000001
 30
0.0
 11
53.90002000000004
 21
33.39996000000001
 31
0.0
  0
LINE
  5
CD
330
1F
100
AcDbEntity
  8
PV
  6
Continuous
 62
     7
100
AcDbLine
 10
66.90002000000004
 20
34.89995363965331
 30
0.0
 11
66.90002000000004
 21
33.39995000000001
 31
0.0
  0
LINE
  5
CE
330
1F
100
AcDbEntity
  8
PV
  6
Continuous
 62
     7
100
AcDbLine
 10
63.90002000000004
 20
34.89995727910297
 30
0.0
 11
63.90002000000004
 21
33.39996000000001
 31
0.0
  0
LINE
  5
CF
330
1F
100
AcDbEntity
  8
PV
  6
Continuous
 62
     7
100
AcDbLine
 10
66.90002000000004
 20
34.89995363965331
 30
0.0
 11
67.96947999999998
 21
35.28920000000001
 31
0.0
  0
LINE
  5
D0
330
1F
100
AcDbEntity
  8
PV
  6
Continuous
 62
     7
100
AcDbLine
 10
66.26684
 20
40.39995000000002
 30
0.0
 11
62.85656398351603
 21
40.3999587916001
 31
0.0
  0
LINE
  5
D1
330
1F
100
AcDbEntity
  8
PV
  6
Continuous
 62
     7
100
AcDbLine
 10
59.34879999999998
 20
35.89996000000001
 30
0.0
 11
52.40001000000007
 21
35.89996000000001
 31
0.0
  0
LINE
  5
D2
330
1F
100
AcDbEntity
  8
PV
  6
Continuous
 62
     7
100
AcDbLine
 10
-32.10000999999988
 20
-0.59998999999999
 30
0.0
 11
-32.10000999999988
 21
-14.59997582010581
 31
0.0
  0
LINE
  5
D3
330
1F
100
AcDbEntity
  8
PV
  6
Continuous
 62
     7
100
AcDbLine
 10
-12.09998999999993
 20
31.39999000000001
 30
0.0
 11
-12.09998999999993
 21
19.39999000000001
 31
0.0
  0
LINE
  5
D4
330
1F
100
AcDbEntity
  8
PV
  6
Continuous
 62
     7
100
AcDbLine
 10
-12.09999999999991
 20
-0.59999799999999
 30
0.0
 11
-25.60001000002399
 21
-0.59998599999288
 31
0.0
  0
LINE
  5
D5
330
1F
100
AcDbEntity
  8
PV
  6
Continuous
 62
     7
100
AcDbLine
 10
-30.10001659186105
 20
-2.64594339919835
 30
0.0
 11
-28.59998700000006
 21
-2.09998699999999
 31
0.0
  0
LINE
  5
D6
330
1F
100
AcDbEntity
  8
PV
  6
Continuous
 62
     7
100
AcDbLine
 10
-24.10001756370889
 20
-2.64591924703049
 30
0.0
 11
-25.60000100000002
 21
-2.09996899999999
 31
0.0
  0
LINE
  5
D7
330
1F
100
AcDbEntity
  8
PV
  6
Continuous
 62
     7
100
AcDbLine
 10
-24.10001756370889
 20
-2.64591924703049
 30
0.0
 11
-24.618954365945
 21
-4.58264237220977
 31
0.0
  0
LINE
  5
D8
330
1F
100
AcDbEntity
  8
PV
  6
Continuous
 62
     7
100
AcDbLine
 10
-30.10001659186105
 20
-2.64594339919835
 30
0.0
 11
-29.53507139171688
 21
-4.7543169616611
 31
0.0
  0
LINE
  5
D9
330
1F
100
AcDbEntity
  8
PV
  6
Continuous
 62
     7
100
AcDbLine
 10
-28.60000999999988
 20
-0.59998999999999
 30
0.0
 11
-32.10000999999988
 21
-0.59998999999999
 31
0.0
  0
LINE
  5
DA
330
1F
100
AcDbEntity
  8
PV
  6
Continuous
 62
     7
100
AcDbLine
 10
-10.60000999999988
 20
-3.09999399999999
 30
0.0
 11
-21.24980581220302
 21
-3.09999000000006
 31
0.0
  0
LINE
  5
DB
330
1F
100
AcDbEntity
  8
PV
  6
Continuous
 62
     7
100
AcDbLine
 10
-12.09999999999991
 20
3.40000200000001
 30
0.0
 11
-12.09999999999991
 21
-0.59999799999999
 31
0.0
  0
LINE
  5
DC
330
1F
100
AcDbEntity
  8
PV
  6
Continuous
 62
     7
100
AcDbLine
 10
-12.09998999999993
 20
31.40004
 30
0.0
 11
-0.63521060307085
 21
33.42156342015701
 31
0.0
  0
LINE
  5
DD
330
1F
100
AcDbEntity
  8
PV
  6
Continuous
 62
     7
100
AcDbLine
 10
-3.10000471014496
 20
47.39998000001064
 30
0.0
 11
-0.63521060307085
 21
33.42156342015701
 31
0.0
  0
LINE
  5
DE
330
1F
100
AcDbEntity
  8
PV
  6
Continuous
 62
     7
100
AcDbLine
 10
-9.79998999999998
 20
19.39999000000001
 30
0.0
 11
-12.09998999999993
 21
19.39999000000001
 31
0.0
  0
LINE
  5
DF
330
1F
100
AcDbEntity
  8
PV
  6
Continuous
 62
     7
100
AcDbLine
 10
-9.79999999999995
 20
3.40000200000001
 30
0.0
 11
-12.09999999999991
 21
3.40000200000001
 31
0.0
  0
LINE
  5
E0
330
1F
100
AcDbEntity
  8
PV
  6
Continuous
 62
     7
100
AcDbLine
 10
-9.79998999999998
 20
19.39999000000001
 30
0.0
 11
-9.79998999999998
 21
17.50000000000001
 31
0.0
  0
LINE
  5
E1
330
1F
100
AcDbEntity
  8
PV
  6
Continuous
 62
     7
100
AcDbLine
 10
-9.79999999999995
 20
5.30001200000001
 30
0.0
 11
-9.79999999999995
 21
3.40000200000001
 31
0.0
  0
LINE
  5
E2
330
1F
100
AcDbEntity
  8
PV
  6
Continuous
 62
     7
100
AcDbLine
 10
-0.39999999999986
 20
16.50001000000001
 30
0.0
 11
-0.39999999999986
 21
12.44279917820658
 31
0.0
  0
LINE
  5
E3
330
1F
100
AcDbEntity
  8
PV
  6
Continuous
 62
     7
100
AcDbLine
 10
-9.79998999999998
 20
17.50000000000001
 30
0.0
 11
-1.40447212477397
 21
17.50000000000001
 31
0.0
  0
LINE
  5
E4
330
1F
100
AcDbEntity
  8
PV
  6
Continuous
 62
     7
100
AcDbLine
 10
-9.79999999999995
 20
5.30001200000001
 30
0.0
 11
-1.40399999199985
 21
5.30001200000001
 31
0.0
  0
LINE
  5
E5
330
1F
100
AcDbEntity
  8
PV
  6
Continuous
 62
     7
100
AcDbLine
 10
-9.09999999999991
 20
0.48281157083696
 30
0.0
 11
-9.10000999999988
 21
-11.59999999999999
 31
0.0
  0
LINE
  5
E6
330
1F
100
AcDbEntity
  8
PV
  6
Continuous
 62
     7
100
AcDbLine
 10
-7.00893891147098
 20
2.30001200000001
 30
0.0
 11
0.69999000000007
 21
2.30001200000001
 31
0.0
  0
LINE
  5
E7
330
1F
100
AcDbEntity
  8
PV
  6
Continuous
 62
     7
100
AcDbLine
 10
-10.09998999999993
 20
29.30225000000001
 30
0.0
 11
-10.09998999999993
 21
21.39999000000001
 31
0.0
  0
LINE
  5
E8
330
1F
100
AcDbEntity
  8
PV
  6
Continuous
 62
     7
100
AcDbLine
 10
-7.80249607011797
 20
19.5
 30
0.0
 11
-0.5
 21
19.5
 31
0.0
  0
LINE
  5
E9
330
1F
100
AcDbEntity
  8
PV
  6
Continuous
 62
     7
100
AcDbLine
 10
-9.68679999999995
 20
29.79471000000001
 30
0.0
 11
-0.58681000000001
 21
31.39928
 31
0.0
  0
LINE
  5
EA
330
1F
100
AcDbEntity
  8
PV
  6
Continuous
 62
     7
100
AcDbLine
 10
-10.60000999999988
 20
-3.09999399999999
 30
0.0
 11
-10.60000999999988
 21
-11.59998999999999
 31
0.0
  0
LINE
  5
EB
330
1F
100
AcDbEntity
  8
PV
  6
Continuous
 62
     7
100
AcDbLine
 10
-10.60000999999988
 20
-11.59998999999999
 30
0.0
 11
-13.021796793676
 21
-11.59998999999999
 31
0.0
  0
LINE
  5
EC
330
1F
100
AcDbEntity
  8
PV
  6
Continuous
 62
     7
100
AcDbLine
 10
-14.50186327922688
 20
-11.23361257653543
 30
0.0
 11
-14.58017300000006
 21
-11.52587999999999
 31
0.0
  0
LINE
  5
ED
330
1F
100
AcDbEntity
  8
PV
  6
Continuous
 62
     7
100
AcDbLine
 10
0.24640999999997
 20
11.04644200000001
 30
0.0
 11
-0.37071999999989
 21
10.42931900000001
 31
0.0
  0
LINE
  5
EE
330
1F
100
AcDbEntity
  8
PV
  6
Continuous
 62
     7
100
AcDbLine
 10
53.89999000000012
 20
-14.60001999999999
 30
0.0
 11
-32.10000999999988
 21
-14.59997582010581
 31
0.0
  0
LINE
  5
EF
330
1F
100
AcDbEntity
  8
PV
  6
Continuous
 62
     7
100
AcDbLine
 10
-9.10000999999988
 20
-11.59999999999999
 30
0.0
 11
0.69999000000007
 21
-11.59999999999999
 31
0.0
  0
LINE
  5
F0
330
1F
100
AcDbEntity
  8
PV
  6
Continuous
 62
     7
100
AcDbLine
 10
0.57871999999998
 20
43.81319000000001
 30
0.0
 11
2.34156515929203
 21
33.8157127881283
 31
0.0
  0
LINE
  5
F1
330
1F
100
AcDbEntity
  8
PV
  6
Continuous
 62
     7
100
AcDbLine
 10
2.50001000000611
 20
31.39999029545171
 30
0.0
 11
2.50000000064801
 21
14.47783552063908
 31
0.0
  0
LINE
  5
F2
330
1F
100
AcDbEntity
  8
PV
  6
Continuous
 62
     7
100
AcDbLine
 10
2.83440999999993
 20
33.39998000000001
 30
0.0
 11
43.44198000000006
 21
33.39996000000001
 31
0.0
  0
LINE
  5
F3
330
1F
100
AcDbEntity
  8
PV
  6
Continuous
 62
     7
100
AcDbLine
 10
3.00000999999998
 20
31.89999000000001
 30
0.0
 11
5.36822042181711
 21
31.8999800084363
 31
0.0
  0
LINE
  5
F4
330
1F
100
AcDbEntity
  8
PV
  6
Continuous
 62
     7
100
AcDbLine
 10
43.90002000000004
 20
31.39996000000001
 30
0.0
 11
43.90001000000507
 21
23.39998375000938
 31
0.0
  0
LINE
  5
F5
330
1F
100
AcDbEntity
  8
PV
  6
Continuous
 62
     7
100
AcDbLine
 10
3.29288999999994
 20
11.89999500000001
 30
0.0
 11
3.29288999999994
 21
10.89999500000001
 31
0.0
  0
LINE
  5
F6
330
1F
100
AcDbEntity
  8
PV
  6
Continuous
 62
     7
100
AcDbLine
 10
4.5
 20
12.39999500000001
 30
0.0
 11
3.79288999999994
 21
12.39999500000001
 31
0.0
  0
LINE
  5
F7
330
1F
100
AcDbEntity
  8
PV
  6
Continuous
 62
     7
100
AcDbLine
 10
4.5
 20
10.39999500000001
 30
0.0
 11
3.79288999999994
 21
10.39999500000001
 31
0.0
  0
LINE
  5
F8
330
1F
100
AcDbEntity
  8
PV
  6
Continuous
 62
     7
100
AcDbLine
 10
4.50000999999997
 20
13.48044000000001
 30
0.0
 11
4.5
 21
12.39999500000001
 31
0.0
  0
LINE
  5
F9
330
1F
100
AcDbEntity
  8
PV
  6
Continuous
 62
     7
100
AcDbLine
 10
4.5
 20
10.39999500000001
 30
0.0
 11
4.5
 21
9.31955800000001
 31
0.0
  0
LINE
  5
FA
330
1F
100
AcDbEntity
  8
PV
  6
Continuous
 62
     7
100
AcDbLine
 10
-9.79998999999998
 20
21.39999000000001
 30
0.0
 11
-10.09998999999993
 21
21.39999000000001
 31
0.0
  0
LINE
  5
FB
330
1F
100
AcDbEntity
  8
PV
  6
Continuous
 62
     7
100
AcDbLine
 10
66.74981000000002
 20
41.02937000000001
 30
0.0
 11
65.94597999999996
 21
44.02937000000001
 31
0.0
  0
LINE
  5
FC
330
1F
100
AcDbEntity
  8
PV
  6
Continuous
 62
     7
100
AcDbLine
 10
63.90002000000004
 20
34.89995727910297
 30
0.0
 11
62.400015117267
 21
35.44589177709578
 31
0.0
  0
LINE
  5
FD
330
1F
100
AcDbEntity
  8
PV
  6
Continuous
 62
     7
100
AcDbLine
 10
63.057574859135
 20
37.89995879159093
 30
0.0
 11
62.400015117267
 21
35.44589177709578
 31
0.0
  0
LINE
  5
FE
330
1F
100
AcDbEntity
  8
PV
  6
Continuous
 62
     7
100
AcDbLine
 10
0.69999000000007
 20
2.30001200000001
 30
0.0
 11
0.69999000000007
 21
-11.59999999999999
 31
0.0
  0
LINE
  5
FF
330
1F
100
AcDbEntity
  8
PV
  6
Continuous
 62
     7
100
AcDbLine
 10
2.19999000000007
 20
2.30000900000001
 30
0.0
 11
2.19999000000007
 21
-11.60001147651006
 31
0.0
  0
LINE
  5
100
330
1F
100
AcDbEntity
  8
PV
  6
Continuous
 62
     7
100
AcDbLine
 10
2.5
 20
6.29999800000001
 30
0.0
 11
2.19999000000007
 21
2.30000900000001
 31
0.0
  0
LINE
  5
101
102
{ACAD_REACTORS
330
1AE
330
1AE
102
}
330
1F
100
AcDbEntity
  8
PV
  6
Continuous
 62
     7
100
AcDbLine
 10
43.46395000000007
 20
0.43680200000001
 30
0.0
 11
43.46395000000007
 21
-9.06319999999999
 31
0.0
  0
LINE
  5
102
102
{ACAD_REACTORS
330
1AE
330
1AE
102
}
330
1F
100
AcDbEntity
  8
PV
  6
Continuous
 62
     7
100
AcDbLine
 10
43.96395000000007
 20
0.93680200000001
 30
0.0
 11
48.46395000000007
 21
0.93680200000001
 31
0.0
  0
LINE
  5
103
102
{ACAD_REACTORS
330
1AE
330
1AE
102
}
330
1F
100
AcDbEntity
  8
PV
  6
Continuous
 62
     7
100
AcDbLine
 10
50.46395000000007
 20
17.43680000000001
 30
0.0
 11
50.46395000000007
 21
2.93680200000001
 31
0.0
  0
LINE
  5
104
102
{ACAD_REACTORS
330
1AE
330
1AE
102
}
330
1F
100
AcDbEntity
  8
PV
  6
Continuous
 62
     7
100
AcDbLine
 10
43.96395000000007
 20
19.43680000000001
 30
0.0
 11
48.46395000000007
 21
19.43680000000001
 31
0.0
  0
LINE
  5
105
102
{ACAD_REACTORS
330
1AE
330
1AE
102
}
330
1F
100
AcDbEntity
  8
PV
  6
Continuous
 62
     7
100
AcDbLine
 10
43.46395000000007
 20
27.23682000000001
 30
0.0
 11
43.46395000000007
 21
19.93680000000001
 31
0.0
  0
LINE
  5
106
102
{ACAD_REACTORS
330
1AE
330
1AE
102
}
330
1F
100
AcDbEntity
  8
PV
  6
Continuous
 62
     7
100
AcDbLine
 10
4.96394000000009
 20
29.23682000000001
 30
0.0
 11
41.46395000000007
 21
29.23682000000001
 31
0.0
  0
LINE
  5
107
102
{ACAD_REACTORS
330
1AE
330
1AE
102
}
330
1F
100
AcDbEntity
  8
PV
  6
Continuous
 62
     7
100
AcDbLine
 10
2.96394000000009
 20
27.23682000000001
 30
0.0
 11
2.96394000000009
 21
20.23682000000001
 31
0.0
  0
LINE
  5
108
102
{ACAD_REACTORS
330
1AE
330
1AE
102
}
330
1F
100
AcDbEntity
  8
PV
  6
Continuous
 62
     7
100
AcDbLine
 10
2.96394000000009
 20
-9.06319999999999
 30
0.0
 11
2.96394000000009
 21
-4.06319799999999
 31
0.0
  0
LINE
  5
109
102
{ACAD_REACTORS
330
1AE
330
1AE
102
}
330
1F
100
AcDbEntity
  8
PV
  6
Continuous
 62
     7
100
AcDbLine
 10
2.96394000000009
 20
20.23682000000001
 30
0.0
 11
4.71394000000009
 21
20.23682000000001
 31
0.0
  0
LINE
  5
10A
102
{ACAD_REACTORS
330
1AE
330
1AE
102
}
330
1F
100
AcDbEntity
  8
PV
  6
Continuous
 62
     7
100
AcDbLine
 10
2.96394000000009
 20
-4.06319799999999
 30
0.0
 11
4.71394000000009
 21
-4.06319799999999
 31
0.0
  0
LINE
  5
10B
102
{ACAD_REACTORS
330
1AE
330
1AE
102
}
330
1F
100
AcDbEntity
  8
PV
  6
Continuous
 62
     7
100
AcDbLine
 10
4.71394000000009
 20
-9.06319999999999
 30
0.0
 11
4.71394000000009
 21
-4.06319799999999
 31
0.0
  0
LINE
  5
10C
102
{ACAD_REACTORS
330
1AE
330
1AE
102
}
330
1F
100
AcDbEntity
  8
PV
  6
Continuous
 62
     7
100
AcDbLine
 10
41.71395000000007
 20
0.68680200000001
 30
0.0
 11
41.71395000000007
 21
-9.06319999999999
 31
0.0
  0
LINE
  5
10D
102
{ACAD_REACTORS
330
1AE
330
1AE
102
}
330
1F
100
AcDbEntity
  8
PV
  6
Continuous
 62
     7
100
AcDbLine
 10
43.71395000000007
 20
2.68680200000001
 30
0.0
 11
48.46395000000007
 21
2.68680200000001
 31
0.0
  0
LINE
  5
10E
102
{ACAD_REACTORS
330
1AE
330
1AE
102
}
330
1F
100
AcDbEntity
  8
PV
  6
Continuous
 62
     7
100
AcDbLine
 10
48.71395000000007
 20
17.43680000000001
 30
0.0
 11
48.71395000000007
 21
2.93680200000001
 31
0.0
  0
LINE
  5
10F
102
{ACAD_REACTORS
330
1AE
330
1AE
102
}
330
1F
100
AcDbEntity
  8
PV
  6
Continuous
 62
     7
100
AcDbLine
 10
43.71395000000007
 20
17.68680000000001
 30
0.0
 11
48.46395000000007
 21
17.68680000000001
 31
0.0
  0
LINE
  5
110
102
{ACAD_REACTORS
330
1AE
330
1AE
102
}
330
1F
100
AcDbEntity
  8
PV
  6
Continuous
 62
     7
100
AcDbLine
 10
41.71395000000007
 20
27.23682000000001
 30
0.0
 11
41.71395000000007
 21
19.68680000000001
 31
0.0
  0
LINE
  5
111
102
{ACAD_REACTORS
330
1AE
330
1AE
102
}
330
1F
100
AcDbEntity
  8
PV
  6
Continuous
 62
     7
100
AcDbLine
 10
4.96394000000009
 20
27.48682000000001
 30
0.0
 11
41.46395000000007
 21
27.48682000000001
 31
0.0
  0
LINE
  5
112
102
{ACAD_REACTORS
330
1AE
330
1AE
102
}
330
1F
100
AcDbEntity
  8
PV
  6
Continuous
 62
     7
100
AcDbLine
 10
4.71394000000009
 20
27.23682000000001
 30
0.0
 11
4.71394000000009
 21
20.23682000000001
 31
0.0
  0
LINE
  5
113
102
{ACAD_REACTORS
330
1AE
330
1AE
102
}
330
1F
100
AcDbEntity
  8
PV
  6
Continuous
 62
     7
100
AcDbLine
 10
4.96394000000009
 20
-11.06319999999999
 30
0.0
 11
41.46395000000007
 21
-11.06319999999999
 31
0.0
  0
LINE
  5
114
102
{ACAD_REACTORS
330
1AE
330
1AE
102
}
330
1F
100
AcDbEntity
  8
PV
  6
Continuous
 62
     7
100
AcDbLine
 10
4.96394000000009
 20
-9.31319999999999
 30
0.0
 11
41.46395000000007
 21
-9.31319999999999
 31
0.0
  0
LINE
  5
115
330
1F
100
AcDbEntity
  8
PV
  6
Continuous
 62
     7
100
AcDbLine
 10
2.19999000000007
 20
-11.60001147651006
 30
0.0
 11
43.89999000000012
 21
-11.60001999999999
 31
0.0
  0
LINE
  5
116
102
{ACAD_REACTORS
330
1AD
330
1AD
102
}
330
1F
100
AcDbEntity
  8
PV
  6
Continuous
 62
     7
100
AcDbLine
 10
-58.16660035944994
 20
25.03849869139169
 30
0.0
 11
-32.1666009999999
 21
25.03848000000001
 31
0.0
  0
LINE
  5
117
102
{ACAD_REACTORS
330
1AD
330
1AD
102
}
330
1F
100
AcDbEntity
  8
PV
  6
Continuous
 62
     7
100
AcDbLine
 10
-58.16660143779893
 20
23.53849869139236
 30
0.0
 11
-32.16660253846203
 21
23.53848000000041
 31
0.0
  0
LINE
  5
118
330
1F
100
AcDbEntity
  8
1
  6
Continuous
 62
     7
100
AcDbLine
 10
-29.90000499999997
 20
23.20001000000001
 30
0.0
 11
-61.19999999999993
 21
23.20001000000001
 31
0.0
  0
LINE
  5
119
330
1F
100
AcDbEntity
  8
1
  6
DOT_CENTER
 62
     2
100
AcDbLine
 10
-56.35001
 20
-8.79998999999999
 30
0.0
 11
-33.85000999999988
 21
-8.79998999999999
 31
0.0
  0
LINE
  5
11A
330
1F
100
AcDbEntity
  8
1
  6
Continuous
 62
     7
100
AcDbLine
 10
-52.60001
 20
2.40001000000001
 30
0.0
 11
-52.60001
 21
-0.09998999999999
 31
0.0
  0
LINE
  5
11B
330
1F
100
AcDbEntity
  8
1
  6
Continuous
 62
     7
100
AcDbLine
 10
-37.60000999999988
 20
-0.09998999999999
 30
0.0
 11
-37.60000999999988
 21
2.40001000000001
 31
0.0
  0
LINE
  5
11C
330
1F
100
AcDbEntity
  8
1
  6
Continuous
 62
     7
100
AcDbLine
 10
-51.10001
 20
-0.09998999999999
 30
0.0
 11
-49.55885726541806
 21
-2.7693448385204
 31
0.0
  0
LINE
  5
11D
330
1F
100
AcDbEntity
  8
1
  6
Continuous
 62
     7
100
AcDbLine
 10
-50.40718967697194
 20
-1.29998999999999
 30
0.0
 11
-39.79283032302692
 21
-1.29998999999999
 31
0.0
  0
LINE
  5
11E
330
1F
100
AcDbEntity
  8
1
  6
Continuous
 62
     7
100
AcDbLine
 10
-39.10000999999988
 20
-0.09998999999999
 30
0.0
 11
-40.64116273458194
 21
-2.7693448385204
 31
0.0
  0
LINE
  5
11F
330
1F
100
AcDbEntity
  8
1
  6
DOT_CENTER
 62
     2
100
AcDbLine
 10
-45.10000999999988
 20
30.30027868355735
 30
0.0
 11
-45.10000999999988
 21
-20.04998999999999
 31
0.0
  0
LINE
  5
120
330
1F
100
AcDbEntity
  8
1
  6
DASHED
 62
     2
100
AcDbLine
 10
-42.20001000000002
 20
2.40001000000001
 30
0.0
 11
-42.20001000000002
 21
1.50887735000221
 31
0.0
  0
LINE
  5
121
330
1F
100
AcDbEntity
  8
1
  6
DASHED
 62
     2
100
AcDbLine
 10
-42.20001000000002
 20
1.50887735000221
 30
0.0
 11
-40.85000999999988
 21
-0.09998999999999
 31
0.0
  0
LINE
  5
122
330
1F
100
AcDbEntity
  8
1
  6
DASHED
 62
     2
100
AcDbLine
 10
-48.00000999999998
 20
2.40001000000001
 30
0.0
 11
-48.00000999999998
 21
1.50887735000221
 31
0.0
  0
LINE
  5
123
330
1F
100
AcDbEntity
  8
1
  6
DASHED
 62
     2
100
AcDbLine
 10
-48.00000999999998
 20
1.50887735000221
 30
0.0
 11
-49.35000999999988
 21
-0.09998999999999
 31
0.0
  0
LINE
  5
124
330
1F
100
AcDbEntity
  8
1
  6
Continuous
 62
     7
100
AcDbLine
 10
-37.60000999999988
 20
-0.09998999999999
 30
0.0
 11
-52.60001
 21
-0.09998999999999
 31
0.0
  0
LINE
  5
125
330
1F
100
AcDbEntity
  8
1
  6
DASHED
 62
     2
100
AcDbLine
 10
-42.20001000000002
 20
1.50887735000221
 30
0.0
 11
-48.00000999999998
 21
1.50887735000221
 31
0.0
  0
LINE
  5
126
330
1F
100
AcDbEntity
  8
1
  6
DOT_CENTER
 62
     2
100
AcDbLine
 10
-56.84743630613195
 20
-9.21021916615769
 30
0.0
 11
-9.25204832461486
 21
-7.54815159358529
 31
0.0
  0
LINE
  5
127
330
1F
100
AcDbEntity
  8
1
  6
Continuous
 62
     7
100
AcDbLine
 10
-12.31580807906585
 20
-10.45684716578519
 30
0.0
 11
-13.28765140386099
 21
-10.89974168515812
 31
0.0
  0
LINE
  5
128
330
1F
100
AcDbEntity
  8
1
  6
Continuous
 62
     2
100
AcDbLine
 10
-38.04880035534188
 20
-11.35546305739759
 30
0.0
 11
-36.10000999999988
 21
-11.287409798611
 31
0.0
  0
LINE
  5
129
330
1F
100
AcDbEntity
  8
1
  6
Continuous
 62
     7
100
AcDbLine
 10
-12.51124526059994
 20
-4.86025853447829
 30
0.0
 11
-10.67613157882602
 21
-5.5463794252066
 31
0.0
  0
LINE
  5
12A
330
1F
100
AcDbEntity
  8
1
  6
Continuous
 62
     7
100
AcDbLine
 10
-14.20016528269002
 20
-4.9192369212597
 30
0.0
 11
-13.98029845346491
 21
-11.21539913147998
 31
0.0
  0
LINE
  5
12B
330
1F
100
AcDbEntity
  8
1
  6
Continuous
 62
     2
100
AcDbLine
 10
-38.24423753687597
 20
-5.75887442609069
 30
0.0
 11
-36.10000999999988
 21
-5.6839963505376
 31
0.0
  0
LINE
  5
12C
330
1F
100
AcDbEntity
  8
1
  6
Continuous
 62
     7
100
AcDbLine
 10
-14.22459493038195
 20
-4.21966334234629
 30
0.0
 11
-14.20016528269002
 21
-4.9192369212597
 31
0.0
  0
LINE
  5
12D
330
1F
100
AcDbEntity
  8
1
  6
Continuous
 62
     7
100
AcDbLine
 10
-13.98029845346491
 20
-11.21539913147998
 30
0.0
 11
-14.50186327922688
 21
-11.23361257653543
 31
0.0
  0
LINE
  5
12E
330
1F
100
AcDbEntity
  8
1
  6
Continuous
 62
     7
100
AcDbLine
 10
-10.53302601588803
 20
-9.64438657170229
 30
0.0
 11
-12.31580807906585
 21
-10.45684716578519
 31
0.0
  0
LINE
  5
12F
330
1F
100
AcDbEntity
  8
1
  6
Continuous
 62
     7
100
AcDbLine
 10
-10.67613157882602
 20
-5.5463794252066
 30
0.0
 11
-10.53302601588803
 21
-9.64438657170229
 31
0.0
  0
LINE
  5
130
330
1F
100
AcDbEntity
  8
1
  6
Continuous
 62
     7
100
AcDbLine
 10
-14.22459493038195
 20
-4.21966334234629
 30
0.0
 11
-12.51124526059994
 21
-4.86025853447829
 31
0.0
  0
LINE
  5
131
330
1F
100
AcDbEntity
  8
1
  6
Continuous
 62
     7
100
AcDbLine
 10
-38.59294945416787
 20
-5.0706250335643
 30
0.0
 11
-36.10000999999988
 21
-4.98356966952839
 31
0.0
  0
LINE
  5
132
330
1F
100
AcDbEntity
  8
1
  6
Continuous
 62
     7
100
AcDbLine
 10
-36.10000999999988
 20
-13.79998999999999
 30
0.0
 11
-36.10000999999988
 21
-11.98783647962019
 31
0.0
  0
LINE
  5
133
330
1F
100
AcDbEntity
  8
1
  6
Continuous
 62
     7
100
AcDbLine
 10
-36.10000999999988
 20
-11.98783647962019
 30
0.0
 11
-38.34865297725105
 21
-12.06636082269799
 31
0.0
  0
LINE
  5
134
330
1F
100
AcDbEntity
  8
1
  6
Continuous
 62
     7
100
AcDbLine
 10
-36.10000999999988
 20
-11.98783647962019
 30
0.0
 11
-36.10000999999988
 21
-11.287409798611
 31
0.0
  0
LINE
  5
135
330
1F
100
AcDbEntity
  8
1
  6
DASHED
 62
     2
100
AcDbLine
 10
-36.10000999999988
 20
-11.287409798611
 30
0.0
 11
-32.10000999999988
 21
-11.14772672064399
 31
0.0
  0
LINE
  5
136
330
1F
100
AcDbEntity
  8
1
  6
Continuous
 62
     7
100
AcDbLine
 10
-36.10000999999988
 20
-11.287409798611
 30
0.0
 11
-36.10000999999988
 21
-5.6839963505376
 31
0.0
  0
LINE
  5
137
330
1F
100
AcDbEntity
  8
1
  6
DASHED
 62
     2
100
AcDbLine
 10
-36.10000999999988
 20
-5.6839963505376
 30
0.0
 11
-32.10000999999988
 21
-5.54431327257059
 31
0.0
  0
LINE
  5
138
330
1F
100
AcDbEntity
  8
1
  6
Continuous
 62
     7
100
AcDbLine
 10
-36.10000999999988
 20
-5.6839963505376
 30
0.0
 11
-36.10000999999988
 21
-4.98356966952839
 31
0.0
  0
LINE
  5
139
330
1F
100
AcDbEntity
  8
1
  6
DASHED
 62
     2
100
AcDbLine
 10
-36.10000999999988
 20
-4.98356966952839
 30
0.0
 11
-32.10000999999988
 21
-4.84388659156139
 31
0.0
  0
LINE
  5
13A
330
1F
100
AcDbEntity
  8
1
  6
Continuous
 62
     7
100
AcDbLine
 10
-36.10000999999988
 20
-4.98356966952839
 30
0.0
 11
-36.10000999999988
 21
-3.79998999999999
 31
0.0
  0
LINE
  5
13B
330
1F
100
AcDbEntity
  8
1
  6
Continuous
 62
     7
100
AcDbLine
 10
-36.10000999999988
 20
-3.79998999999999
 30
0.0
 11
-32.10000999999988
 21
-3.79998999999999
 31
0.0
  0
LINE
  5
13C
330
1F
100
AcDbEntity
  8
1
  6
Continuous
 62
     7
100
AcDbLine
 10
-32.10000999999988
 20
-4.84388659156139
 30
0.0
 11
-29.53507139171688
 21
-4.7543169616611
 31
0.0
  0
LINE
  5
13D
330
1F
100
AcDbEntity
  8
1
  6
Continuous
 62
     2
100
AcDbLine
 10
-32.10000999999988
 20
-5.54431327257059
 30
0.0
 11
-12.51124526059994
 21
-4.86025853447829
 31
0.0
  0
LINE
  5
13E
330
1F
100
AcDbEntity
  8
1
  6
Continuous
 62
     2
100
AcDbLine
 10
-32.10000999999988
 20
-11.14772672064399
 30
0.0
 11
-12.31580807906585
 21
-10.45684716578519
 31
0.0
  0
LINE
  5
13F
330
1F
100
AcDbEntity
  8
1
  6
DASHED
 62
     2
100
AcDbLine
 10
-32.10000999999988
 20
-11.84815340165319
 30
0.0
 11
-36.10000999999988
 21
-11.98783647962019
 31
0.0
  0
LINE
  5
140
330
1F
100
AcDbEntity
  8
1
  6
Continuous
 62
     7
100
AcDbLine
 10
-32.10000999999988
 20
-13.79998999999999
 30
0.0
 11
-36.10000999999988
 21
-13.79998999999999
 31
0.0
  0
LINE
  5
141
330
1F
100
AcDbEntity
  8
1
  6
Continuous
 62
     7
100
AcDbLine
 10
-24.99353997470985
 20
-11.59999000000015
 30
0.0
 11
-32.10000999999988
 21
-11.84815340165319
 31
0.0
  0
LINE
  5
142
330
1F
100
AcDbEntity
  8
1
  6
Continuous
 62
     7
100
AcDbLine
 10
-24.618954365945
 20
-4.58264237220977
 30
0.0
 11
-22.00629172305389
 21
-4.49140618229771
 31
0.0
  0
LINE
  5
143
330
1F
100
AcDbEntity
  8
1
  6
Continuous
 62
     7
100
AcDbLine
 10
-29.53507139171688
 20
-4.7543169616611
 30
0.0
 11
-24.618954365945
 21
-4.58264237220977
 31
0.0
  0
LINE
  5
144
330
1F
100
AcDbEntity
  8
1
  6
Continuous
 62
     7
100
AcDbLine
 10
-22.00629172305389
 20
-4.49140618229771
 30
0.0
 11
-14.22459493038195
 21
-4.21966334234629
 31
0.0
  0
LINE
  5
145
330
1F
100
AcDbEntity
  8
1
  6
Continuous
 62
     7
100
AcDbLine
 10
-14.50186327922688
 20
-11.23361257653543
 30
0.0
 11
-24.99353997470985
 21
-11.59999000000015
 31
0.0
  0
LINE
  5
146
330
1F
100
AcDbEntity
  8
1
  6
Continuous
 62
     7
100
AcDbLine
 10
-13.28765140386099
 20
-10.89974168515812
 30
0.0
 11
-13.98029845346491
 21
-11.21539913147998
 31
0.0
  0
ARC
  5
147
330
1F
100
AcDbEntity
  8
PV
  6
Continuous
 62
     7
100
AcDbCircle
 10
-2.37388010886093
 20
47.38316803851414
 30
0.0
 40
3.016850749468857
100
AcDbArc
 50
29.99980087678932
 51
90.13829466195206
  0
ARC
  5
148
330
1F
100
AcDbEntity
  8
PV
  6
Continuous
 62
     7
100
AcDbCircle
 10
-3.48980000000006
 20
62.40001
 30
0.0
 40
2.000003000000037
100
AcDbArc
 50
14.56525367142915
 51
90.09923913914632
  0
ARC
  5
149
330
1F
100
AcDbEntity
  8
PV
  6
Continuous
 62
     7
100
AcDbCircle
 10
-7.39434731098891
 20
54.87987023578565
 30
0.0
 40
2.520187754376611
100
AcDbArc
 50
90.3535883765495
 51
164.9997712666392
  0
ARC
  5
14A
330
1F
100
AcDbEntity
  8
PV
  6
Continuous
 62
     7
100
AcDbCircle
 10
-25.90000499999997
 20
29.1111
 30
0.0
 40
0.5
100
AcDbArc
 50
180.0
 51
-104.7944981989458
  0
ARC
  5
14B
330
1F
100
AcDbEntity
  8
PV
  6
Continuous
 62
     7
100
AcDbCircle
 10
-25.90000499999997
 20
25.82019
 30
0.0
 40
0.5000079999999036
100
AcDbArc
 50
74.63929226853368
 51
-179.6758882868976
  0
ARC
  5
14C
330
1F
100
AcDbEntity
  8
PV
  6
Continuous
 62
     7
100
AcDbCircle
 10
-60.80000999999993
 20
42.90001
 30
0.0
 40
0.5000070000001356
100
AcDbArc
 50
-63.99819314624917
 51
64.00384791466175
  0
ARC
  5
14D
102
{ACAD_REACTORS
330
1AD
330
1AD
102
}
330
1F
100
AcDbEntity
  8
PV
  6
Continuous
 62
     7
100
AcDbCircle
 10
-32.1666009999999
 20
25.53848
 30
0.0
 40
0.4999999999999893
100
AcDbArc
 50
-90.0
 51
0.0
  0
ARC
  5
14E
102
{ACAD_REACTORS
330
1AD
330
1AD
102
}
330
1F
100
AcDbEntity
  8
PV
  6
Continuous
 62
     7
100
AcDbCircle
 10
-32.16659699999991
 20
46.53848
 30
0.0
 40
0.5
100
AcDbArc
 50
0.0
 51
90.0
  0
ARC
  5
14F
102
{ACAD_REACTORS
330
1AD
330
1AD
102
}
330
1F
100
AcDbEntity
  8
PV
  6
Continuous
 62
     7
100
AcDbCircle
 10
-58.1665999999999
 20
46.5385
 30
0.0
 40
0.5
100
AcDbArc
 50
90.0
 51
180.0
  0
ARC
  5
150
102
{ACAD_REACTORS
330
1AD
330
1AD
102
}
330
1F
100
AcDbEntity
  8
PV
  6
Continuous
 62
     7
100
AcDbCircle
 10
-58.1665999999999
 20
46.5385
 30
0.0
 40
2.000000000014795
100
AcDbArc
 50
89.99995592628373
 51
180.0
  0
ARC
  5
151
102
{ACAD_REACTORS
330
1AD
330
1AD
102
}
330
1F
100
AcDbEntity
  8
PV
  6
Continuous
 62
     7
100
AcDbCircle
 10
-32.16659699999991
 20
46.53848
 30
0.0
 40
2.0
100
AcDbArc
 50
0.0
 51
89.99995592628048
  0
ARC
  5
152
102
{ACAD_REACTORS
330
1AD
330
1AD
102
}
330
1F
100
AcDbEntity
  8
PV
  6
Continuous
 62
     7
100
AcDbCircle
 10
-32.1666009999999
 20
25.53848
 30
0.0
 40
2.000000000000183
100
AcDbArc
 50
-90.00004407369347
 51
0.0
  0
ARC
  5
153
330
1F
100
AcDbEntity
  8
PV
  6
Continuous
 62
     7
100
AcDbCircle
 10
-29.90000499999997
 20
23.70001000000001
 30
0.0
 40
0.5
100
AcDbArc
 50
-90.0
 51
0.0
  0
ARC
  5
154
330
1F
100
AcDbEntity
  8
PV
  6
Continuous
 62
     7
100
AcDbCircle
 10
-29.90000499999997
 20
48.40001
 30
0.0
 40
0.5
100
AcDbArc
 50
0.0
 51
90.0
  0
ARC
  5
155
330
1F
100
AcDbEntity
  8
PV
  6
Continuous
 62
     7
100
AcDbCircle
 10
-3.83697983912089
 20
57.90000362732194
 30
0.0
 40
0.4999936274251796
100
AcDbArc
 50
-90.00116436582044
 51
14.99863563416432
  0
ARC
  5
156
330
1F
100
AcDbEntity
  8
PV
  6
Continuous
 62
     7
100
AcDbCircle
 10
-4.64084000000003
 20
60.90001
 30
0.0
 40
0.5000079999998204
100
AcDbArc
 50
14.71454316837537
 51
90.32411171302711
  0
ARC
  5
157
330
1F
100
AcDbEntity
  8
PV
  6
Continuous
 62
     7
100
AcDbCircle
 10
-44.89999999999986
 20
50.90001
 30
0.0
 40
0.5
100
AcDbArc
 50
180.0
 51
-90.0
  0
ARC
  5
158
330
1F
100
AcDbEntity
  8
PV
  6
Continuous
 62
     7
100
AcDbCircle
 10
-47.39999999999986
 20
50.90001
 30
0.0
 40
0.5
100
AcDbArc
 50
-90.0
 51
0.0
  0
ARC
  5
159
330
1F
100
AcDbEntity
  8
PV
  6
Continuous
 62
     7
100
AcDbCircle
 10
-47.39999999999986
 20
60.90001
 30
0.0
 40
0.5
100
AcDbArc
 50
0.0
 51
90.0
  0
ARC
  5
15A
330
1F
100
AcDbEntity
  8
PV
  6
Continuous
 62
     7
100
AcDbCircle
 10
-44.89999999999986
 20
60.90001
 30
0.0
 40
0.5
100
AcDbArc
 50
90.0
 51
180.0
  0
ARC
  5
15B
330
1F
100
AcDbEntity
  8
PV
  6
Continuous
 62
     7
100
AcDbCircle
 10
-27.40000499999997
 20
60.90001
 30
0.0
 40
0.5
100
AcDbArc
 50
90.0
 51
180.0
  0
ARC
  5
15C
330
1F
100
AcDbEntity
  8
PV
  6
Continuous
 62
     7
100
AcDbCircle
 10
-27.40000499999997
 20
53.40001
 30
0.0
 40
0.5
100
AcDbArc
 50
180.0
 51
-90.0
  0
ARC
  5
15D
330
1F
100
AcDbEntity
  8
PV
  6
Continuous
 62
     7
100
AcDbCircle
 10
-29.90000499999997
 20
50.90001
 30
0.0
 40
0.5
100
AcDbArc
 50
-90.0
 51
0.0
  0
ARC
  5
15E
330
1F
100
AcDbEntity
  8
PV
  6
Continuous
 62
     7
100
AcDbCircle
 10
-29.90000499999997
 20
60.90001
 30
0.0
 40
0.5
100
AcDbArc
 50
0.0
 51
90.0
  0
ARC
  5
15F
330
1F
100
AcDbEntity
  8
PV
  6
Continuous
 62
     7
100
AcDbCircle
 10
-61.19999999999993
 20
60.90001
 30
0.0
 40
0.5
100
AcDbArc
 50
90.0
 51
180.0
  0
ARC
  5
160
330
1F
100
AcDbEntity
  8
PV
  6
Continuous
 62
     7
100
AcDbCircle
 10
-61.19999999999993
 20
50.90001
 30
0.0
 40
0.5
100
AcDbArc
 50
180.0
 51
-90.0
  0
ARC
  5
161
330
1F
100
AcDbEntity
  8
PV
  6
Continuous
 62
     7
100
AcDbCircle
 10
-61.19999999999993
 20
48.40001
 30
0.0
 40
0.5
100
AcDbArc
 50
90.0
 51
180.0
  0
ARC
  5
162
330
1F
100
AcDbEntity
  8
PV
  6
Continuous
 62
     7
100
AcDbCircle
 10
-29.90000499999997
 20
21.20001000000001
 30
0.0
 40
0.5
100
AcDbArc
 50
0.0
 51
90.0
  0
ARC
  5
163
330
1F
100
AcDbEntity
  8
PV
  6
Continuous
 62
     7
100
AcDbCircle
 10
-21.90000499999997
 20
23.40001
 30
0.0
 40
0.5
100
AcDbArc
 50
180.0
 51
-90.0
  0
ARC
  5
164
330
1F
100
AcDbEntity
  8
PV
  6
Continuous
 62
     7
100
AcDbCircle
 10
-25.90000106832986
 20
31.68891125045464
 30
0.0
 40
0.5000039317467487
100
AcDbArc
 50
104.9990973838157
 51
179.9989973838406
  0
ARC
  5
165
330
1F
100
AcDbEntity
  8
PV
  6
Continuous
 62
     7
100
AcDbCircle
 10
-3.53246999999988
 20
52.90001
 30
0.0
 40
2.000003
100
AcDbArc
 50
89.90076086085368
 51
90.09923913914628
  0
ARC
  5
166
330
1F
100
AcDbEntity
  8
PV
  6
Continuous
 62
     7
100
AcDbCircle
 10
-10.91762631999291
 20
53.40002763888288
 30
0.0
 40
0.5000176390700165
100
AcDbArc
 50
-90.00156755802696
 51
-15.00160755799599
  0
ARC
  5
167
330
1F
100
AcDbEntity
  8
PV
  6
Continuous
 62
     7
100
AcDbCircle
 10
-60.80000999999993
 20
29.20001
 30
0.0
 40
0.5000070000000135
100
AcDbArc
 50
-64.19818752291977
 51
64.1981875230395
  0
ARC
  5
168
330
1F
100
AcDbEntity
  8
PV
  6
Continuous
 62
     7
100
AcDbCircle
 10
-3.536540690538
 20
52.89472564427992
 30
0.0
 40
2.005298511545479
100
AcDbArc
 50
14.99910576846176
 51
89.7847139078421
  0
ARC
  5
169
330
1F
100
AcDbEntity
  8
PV
  6
Continuous
 62
     7
100
AcDbCircle
 10
53.39999000000012
 20
-10.19590999999999
 30
0.0
 40
0.5
100
AcDbArc
 50
0.0
 51
100.1179375267507
  0
ARC
  5
16A
330
1F
100
AcDbEntity
  8
PV
  6
Continuous
 62
     7
100
AcDbCircle
 10
46.89999000000012
 20
-3.10002099999999
 30
0.0
 40
3.000000000000002
100
AcDbArc
 50
90.0
 51
-179.7909200971693
  0
ARC
  5
16B
330
1F
100
AcDbEntity
  8
PV
  6
Continuous
 62
     7
100
AcDbCircle
 10
40.97676000000001
 20
31.79997000000001
 30
0.0
 40
0.1000059999999953
100
AcDbArc
 50
88.97507901934127
 51
165.5005499240611
  0
ARC
  5
16C
330
1F
100
AcDbEntity
  8
PV
  6
Continuous
 62
     7
100
AcDbCircle
 10
38.77023000000008
 20
31.79997000000001
 30
0.0
 40
0.0999950000002592
100
AcDbArc
 50
14.10765447472071
 51
90.57293777276902
  0
ARC
  5
16D
330
1F
100
AcDbEntity
  8
PV
  6
Continuous
 62
     7
100
AcDbCircle
 10
51.32328000000007
 20
33.29997000000001
 30
0.0
 40
0.0999950000003971
100
AcDbArc
 50
14.18004308480844
 51
90.57297450697786
  0
ARC
  5
16E
330
1F
100
AcDbEntity
  8
PV
  6
Continuous
 62
     7
100
AcDbCircle
 10
66.61407000000008
 20
45.39995000000002
 30
0.0
 40
2.000003000000318
100
AcDbArc
 50
14.67041383851754
 51
90.09921434376756
  0
ARC
  5
16F
330
1F
100
AcDbEntity
  8
PV
  6
Continuous
 62
     7
100
AcDbCircle
 10
62.85655753858305
 20
37.89995879159093
 30
0.0
 40
2.500000000017474
100
AcDbArc
 50
89.99985229301629
 51
165.0560546638337
  0
ARC
  5
170
330
1F
100
AcDbEntity
  8
PV
  6
Continuous
 62
     7
100
AcDbCircle
 10
67.35878000000002
 20
37.39995000000002
 30
0.0
 40
0.5000080000005632
100
AcDbArc
 50
14.42129330737153
 51
90.32411171313133
  0
ARC
  5
171
330
1F
100
AcDbEntity
  8
PV
  6
Continuous
 62
     7
100
AcDbCircle
 10
67.79845369945701
 20
35.75905474541357
 30
0.0
 40
0.5000134770834245
100
AcDbArc
 50
-69.99858308927736
 51
15.52497695332302
  0
ARC
  5
172
330
1F
100
AcDbEntity
  8
PV
  6
Continuous
 62
     7
100
AcDbCircle
 10
6.47348288940998
 20
30.00077113141506
 30
0.0
 40
0.5000126410018979
100
AcDbArc
 50
-164.9990109561672
 51
-14.62416136463323
  0
ARC
  5
173
330
1F
100
AcDbEntity
  8
PV
  6
Continuous
 62
     7
100
AcDbCircle
 10
7.57674999999995
 20
31.79999000000001
 30
0.0
 40
0.1000060000000027
100
AcDbArc
 50
88.97504228266081
 51
165.6481622067378
  0
ARC
  5
174
330
1F
100
AcDbEntity
  8
PV
  6
Continuous
 62
     7
100
AcDbCircle
 10
5.37022000000002
 20
31.79999000000001
 30
0.0
 40
0.1000099999997845
100
AcDbArc
 50
13.90780675007858
 51
91.14563568781364
  0
ARC
  5
175
330
1F
100
AcDbEntity
  8
PV
  6
Continuous
 62
     7
100
AcDbCircle
 10
2.60000000000014
 20
14.47674000000001
 30
0.0
 40
0.1000059999994742
100
AcDbArc
 50
179.3723380151902
 51
-103.9730628147087
  0
ARC
  5
176
330
1F
100
AcDbEntity
  8
PV
  6
Continuous
 62
     7
100
AcDbCircle
 10
-1.39999999999986
 20
16.50001000000001
 30
0.0
 40
1.0
100
AcDbArc
 50
0.0
 51
90.25623472912874
  0
ARC
  5
177
330
1F
100
AcDbEntity
  8
PV
  6
Continuous
 62
     7
100
AcDbCircle
 10
-0.30000999999993
 20
12.44138500000001
 30
0.0
 40
0.099999999999934
100
AcDbArc
 50
179.1897085629464
 51
-133.4234335345529
  0
ARC
  5
178
330
1F
100
AcDbEntity
  8
PV
  6
Continuous
 62
     7
100
AcDbCircle
 10
-0.30000801523488
 20
10.35860678618261
 30
0.0
 40
0.1000020098416273
100
AcDbArc
 50
134.9999072030442
 51
-179.1887013601307
  0
ARC
  5
179
330
1F
100
AcDbEntity
  8
PV
  6
Continuous
 62
     7
100
AcDbCircle
 10
2.59998999999993
 20
8.32326600000001
 30
0.0
 40
0.0999990000000502
100
AcDbArc
 50
103.8169100475966
 51
-179.2312868439906
  0
ARC
  5
17A
330
1F
100
AcDbEntity
  8
PV
  6
Continuous
 62
     7
100
AcDbCircle
 10
-21.24980600000004
 20
-3.59998999999999
 30
0.0
 40
0.4999999999999673
100
AcDbArc
 50
89.99997848004703
 51
165.233711626689
  0
ARC
  5
17B
330
1F
100
AcDbEntity
  8
PV
  6
Continuous
 62
     7
100
AcDbCircle
 10
-13.02327999999989
 20
-11.49999999999999
 30
0.0
 40
0.1000010000002307
100
AcDbArc
 50
-164.9996000000353
 51
-89.15016271238376
  0
ARC
  5
17C
330
1F
100
AcDbEntity
  8
PV
  6
Continuous
 62
     7
100
AcDbCircle
 10
46.90001000000007
 20
23.39998000000001
 30
0.0
 40
2.999999999997349
100
AcDbArc
 50
179.9999283800967
 51
-90.0
  0
ARC
  5
17D
330
1F
100
AcDbEntity
  8
PV
  6
Continuous
 62
     7
100
AcDbCircle
 10
53.40001000000007
 20
30.89996000000001
 30
0.0
 40
0.5
100
AcDbArc
 50
-90.0
 51
0.0
  0
ARC
  5
17E
330
1F
100
AcDbEntity
  8
PV
  6
Continuous
 62
     7
100
AcDbCircle
 10
46.40002000000004
 20
33.39996000000001
 30
0.0
 40
2.500000000016338
100
AcDbArc
 50
90.0003274044498
 51
170.4059000000001
  0
ARC
  5
17F
330
1F
100
AcDbEntity
  8
PV
  6
Continuous
 62
     7
100
AcDbCircle
 10
59.34879999999998
 20
36.39996000000001
 30
0.0
 40
0.5
100
AcDbArc
 50
-90.0
 51
-14.9997799999915
  0
ARC
  5
180
330
1F
100
AcDbEntity
  8
PV
  6
Continuous
 62
     7
100
AcDbCircle
 10
52.40002000000004
 20
43.89996000000001
 30
0.0
 40
0.5
100
AcDbArc
 50
90.0
 51
180.0
  0
ARC
  5
181
330
1F
100
AcDbEntity
  8
PV
  6
Continuous
 62
     7
100
AcDbCircle
 10
52.40001000000007
 20
36.39996000000001
 30
0.0
 40
0.5
100
AcDbArc
 50
180.0
 51
-90.0
  0
ARC
  5
182
330
1F
100
AcDbEntity
  8
PV
  6
Continuous
 62
     7
100
AcDbCircle
 10
49.90002000000004
 20
43.89998000000001
 30
0.0
 40
0.500000000026365
100
AcDbArc
 50
-0.00007639437249
 51
90.0
  0
ARC
  5
183
330
1F
100
AcDbEntity
  8
PV
  6
Continuous
 62
     7
100
AcDbCircle
 10
49.90001000000007
 20
36.39998000000001
 30
0.0
 40
0.5
100
AcDbArc
 50
-90.0
 51
-0.00007639437249
  0
ARC
  5
184
330
1F
100
AcDbEntity
  8
PV
  6
Continuous
 62
     7
100
AcDbCircle
 10
-9.79999999999995
 20
3.40000200000001
 30
0.0
 40
3.000000000000094
100
AcDbArc
 50
-76.50660117844785
 51
-21.50998298359793
  0
ARC
  5
185
330
1F
100
AcDbEntity
  8
PV
  6
Continuous
 62
     7
100
AcDbCircle
 10
-9.799992102641
 20
19.39999200000001
 30
0.0
 40
1.999998000001312
100
AcDbArc
 50
2.86621632136448
 51
89.99993976371165
  0
ARC
  5
186
330
1F
100
AcDbEntity
  8
PV
  6
Continuous
 62
     7
100
AcDbCircle
 10
-9.59994899283492
 20
29.30226923019036
 30
0.0
 40
0.5000410075346826
100
AcDbArc
 50
100.0023034367942
 51
-179.9977965632223
  0
ARC
  5
187
330
1F
100
AcDbEntity
  8
PV
  6
Continuous
 62
     7
100
AcDbCircle
 10
-1.39999999999986
 20
6.30000400000001
 30
0.0
 40
1.000000000000001
100
AcDbArc
 50
-90.22918327084123
 51
0.0
  0
ARC
  5
188
330
1F
100
AcDbEntity
  8
PV
  6
Continuous
 62
     7
100
AcDbCircle
 10
-0.10712246548292
 20
11.40001149970156
 30
0.0
 40
0.4999965952580195
100
AcDbArc
 50
-45.00300084645434
 51
44.99813915359351
  0
ARC
  5
189
330
1F
100
AcDbEntity
  8
PV
  6
Continuous
 62
     7
100
AcDbCircle
 10
1.07112438152194
 20
43.89998461972257
 30
0.0
 40
0.4999953809337596
100
AcDbArc
 50
89.99706431153894
 51
-170.0033356884248
  0
ARC
  5
18A
330
1F
100
AcDbEntity
  8
PV
  6
Continuous
 62
     7
100
AcDbCircle
 10
43.40002000000004
 20
31.39996000000001
 30
0.0
 40
0.5
100
AcDbArc
 50
0.0
 51
90.0
  0
ARC
  5
18B
330
1F
100
AcDbEntity
  8
PV
  6
Continuous
 62
     7
100
AcDbCircle
 10
3.00000999999998
 20
31.39999000000001
 30
0.0
 40
0.5
100
AcDbArc
 50
90.0
 51
179.9999661437292
  0
ARC
  5
18C
330
1F
100
AcDbEntity
  8
PV
  6
Continuous
 62
     7
100
AcDbCircle
 10
2.83441177824011
 20
33.89997850000001
 30
0.0
 40
0.4999985000035489
100
AcDbArc
 50
-170.2975267091128
 51
-90.0002037719254
  0
ARC
  5
18D
330
1F
100
AcDbEntity
  8
PV
  6
Continuous
 62
     7
100
AcDbCircle
 10
43.44198096773494
 20
33.89995898328603
 30
0.0
 40
0.4999989832869559
100
AcDbArc
 50
-90.0001108944746
 51
-9.5938108944753
  0
ARC
  5
18E
330
1F
100
AcDbEntity
  8
PV
  6
Continuous
 62
     7
100
AcDbCircle
 10
3.99999910471297
 20
13.4804488545394
 30
0.0
 40
0.5000108953654058
100
AcDbArc
 50
-0.00101463336358
 51
74.99898536668199
  0
ARC
  5
18F
330
1F
100
AcDbEntity
  8
PV
  6
Continuous
 62
     7
100
AcDbCircle
 10
3.99998236111696
 20
9.3195443199934
 30
0.0
 40
0.500017639070061
100
AcDbArc
 50
-74.99839244199778
 51
0.00156755798482
  0
ARC
  5
190
330
1F
100
AcDbEntity
  8
PV
  6
Continuous
 62
     7
100
AcDbCircle
 10
3.79288999999994
 20
11.89999500000001
 30
0.0
 40
0.5
100
AcDbArc
 50
90.0
 51
180.0
  0
ARC
  5
191
330
1F
100
AcDbEntity
  8
PV
  6
Continuous
 62
     7
100
AcDbCircle
 10
3.79288999999994
 20
10.89999500000001
 30
0.0
 40
0.5
100
AcDbArc
 50
180.0
 51
-90.0
  0
ARC
  5
192
330
1F
100
AcDbEntity
  8
PV
  6
Continuous
 62
     7
100
AcDbCircle
 10
66.26684039629095
 20
40.89995728806406
 30
0.0
 40
0.5000072880641974
100
AcDbArc
 50
-90.0000454109351
 51
15.00015458903793
  0
ARC
  5
193
330
1F
100
AcDbEntity
  8
PV
  6
Continuous
 62
     7
100
AcDbCircle
 10
65.46301298187404
 20
43.89995448354148
 30
0.0
 40
0.5000055164672381
100
AcDbArc
 50
15.00054169381613
 51
90.00034169383252
  0
ARC
  5
194
330
1F
100
AcDbEntity
  8
PV
  6
Continuous
 62
     7
100
AcDbCircle
 10
-14.67676898552895
 20
-11.4999962300681
 30
0.0
 40
0.1000037697595576
100
AcDbArc
 50
-90.81026918222769
 51
-15.00052774506015
  0
ARC
  5
195
330
1F
100
AcDbEntity
  8
PV
  6
Continuous
 62
     7
100
AcDbCircle
 10
-0.50001186227291
 20
30.90684934053591
 30
0.0
 40
0.5000218706140577
100
AcDbArc
 50
-0.01797117103389
 51
99.99653860825225
  0
ARC
  5
196
330
1F
100
AcDbEntity
  8
PV
  6
Continuous
 62
     7
100
AcDbCircle
 10
-0.5
 20
20.0
 30
0.0
 40
0.5
100
AcDbArc
 50
-90.0
 51
0.0
  0
ARC
  5
197
330
1F
100
AcDbEntity
  8
PV
  6
Continuous
 62
     7
100
AcDbCircle
 10
39.87349267949207
 20
30.0007741009604
 30
0.0
 40
0.5000176897218259
100
AcDbArc
 50
-165.00118629715
 51
-15.00118629715112
  0
ARC
  5
198
102
{ACAD_REACTORS
330
1AE
330
1AE
102
}
330
1F
100
AcDbEntity
  8
PV
  6
Continuous
 62
     7
100
AcDbCircle
 10
41.46395000000007
 20
-9.06319999999999
 30
0.0
 40
1.999999999999998
100
AcDbArc
 50
-90.0
 51
0.0
  0
ARC
  5
199
102
{ACAD_REACTORS
330
1AE
330
1AE
102
}
330
1F
100
AcDbEntity
  8
PV
  6
Continuous
 62
     7
100
AcDbCircle
 10
48.46395000000007
 20
2.93680200000001
 30
0.0
 40
2.0
100
AcDbArc
 50
-90.0
 51
0.0
  0
ARC
  5
19A
102
{ACAD_REACTORS
330
1AE
330
1AE
102
}
330
1F
100
AcDbEntity
  8
PV
  6
Continuous
 62
     7
100
AcDbCircle
 10
48.46395000000007
 20
17.43680000000001
 30
0.0
 40
2.0
100
AcDbArc
 50
0.0
 51
90.0
  0
ARC
  5
19B
102
{ACAD_REACTORS
330
1AE
330
1AE
102
}
330
1F
100
AcDbEntity
  8
PV
  6
Continuous
 62
     7
100
AcDbCircle
 10
41.46395000000007
 20
27.23682000000001
 30
0.0
 40
2.0
100
AcDbArc
 50
0.0
 51
90.0
  0
ARC
  5
19C
102
{ACAD_REACTORS
330
1AE
330
1AE
102
}
330
1F
100
AcDbEntity
  8
PV
  6
Continuous
 62
     7
100
AcDbCircle
 10
43.96395000000007
 20
19.93680000000001
 30
0.0
 40
0.5
100
AcDbArc
 50
180.0
 51
-90.0
  0
ARC
  5
19D
102
{ACAD_REACTORS
330
1AE
330
1AE
102
}
330
1F
100
AcDbEntity
  8
PV
  6
Continuous
 62
     7
100
AcDbCircle
 10
43.96395000000007
 20
0.43680200000001
 30
0.0
 40
0.5
100
AcDbArc
 50
90.0
 51
180.0
  0
ARC
  5
19E
102
{ACAD_REACTORS
330
1AE
330
1AE
102
}
330
1F
100
AcDbEntity
  8
PV
  6
Continuous
 62
     7
100
AcDbCircle
 10
4.96394000000009
 20
-9.06319999999999
 30
0.0
 40
2.0
100
AcDbArc
 50
180.0
 51
-90.0
  0
ARC
  5
19F
102
{ACAD_REACTORS
330
1AE
330
1AE
102
}
330
1F
100
AcDbEntity
  8
PV
  6
Continuous
 62
     7
100
AcDbCircle
 10
4.96394000000009
 20
27.23682000000001
 30
0.0
 40
2.0
100
AcDbArc
 50
90.0
 51
180.0
  0
ARC
  5
1A0
102
{ACAD_REACTORS
330
1AE
330
1AE
102
}
330
1F
100
AcDbEntity
  8
PV
  6
Continuous
 62
     7
100
AcDbCircle
 10
4.96394000000009
 20
27.23682000000001
 30
0.0
 40
0.25
100
AcDbArc
 50
90.0
 51
180.0
  0
ARC
  5
1A1
102
{ACAD_REACTORS
330
1AE
330
1AE
102
}
330
1F
100
AcDbEntity
  8
PV
  6
Continuous
 62
     7
100
AcDbCircle
 10
41.46395000000007
 20
27.23682000000001
 30
0.0
 40
0.25
100
AcDbArc
 50
0.0
 51
90.0
  0
ARC
  5
1A2
102
{ACAD_REACTORS
330
1AE
330
1AE
102
}
330
1F
100
AcDbEntity
  8
PV
  6
Continuous
 62
     7
100
AcDbCircle
 10
48.46395000000007
 20
17.43680000000001
 30
0.0
 40
0.25
100
AcDbArc
 50
0.0
 51
90.0
  0
ARC
  5
1A3
102
{ACAD_REACTORS
330
1AE
330
1AE
102
}
330
1F
100
AcDbEntity
  8
PV
  6
Continuous
 62
     7
100
AcDbCircle
 10
48.46395000000007
 20
2.93680200000001
 30
0.0
 40
0.25
100
AcDbArc
 50
-90.0
 51
0.0
  0
ARC
  5
1A4
102
{ACAD_REACTORS
330
1AE
330
1AE
102
}
330
1F
100
AcDbEntity
  8
PV
  6
Continuous
 62
     7
100
AcDbCircle
 10
41.46395000000007
 20
-9.06319999999999
 30
0.0
 40
0.25
100
AcDbArc
 50
-90.0
 51
0.0
  0
ARC
  5
1A5
102
{ACAD_REACTORS
330
1AE
330
1AE
102
}
330
1F
100
AcDbEntity
  8
PV
  6
Continuous
 62
     7
100
AcDbCircle
 10
4.96394000000009
 20
-9.06319999999999
 30
0.0
 40
0.25
100
AcDbArc
 50
180.0
 51
-90.0
  0
ARC
  5
1A6
102
{ACAD_REACTORS
330
1AE
330
1AE
102
}
330
1F
100
AcDbEntity
  8
PV
  6
Continuous
 62
     7
100
AcDbCircle
 10
43.71395000000007
 20
19.68680000000001
 30
0.0
 40
2.0
100
AcDbArc
 50
180.0
 51
-90.0
  0
ARC
  5
1A7
102
{ACAD_REACTORS
330
1AE
330
1AE
102
}
330
1F
100
AcDbEntity
  8
PV
  6
Continuous
 62
     7
100
AcDbCircle
 10
43.71395000000007
 20
0.68680200000001
 30
0.0
 40
2.0
100
AcDbArc
 50
90.0
 51
180.0
  0
CIRCLE
  5
1A8
330
1F
100
AcDbEntity
  8
1
  6
Continuous
 62
     7
100
AcDbCircle
 10
-45.10000999999988
 20
-8.79998999999999
 30
0.0
 40
7.5
  0
ARC
  5
1A9
102
{ACAD_REACTORS
330
1AD
330
1AD
102
}
330
1F
100
AcDbEntity
  8
1
  6
Continuous
 62
     7
100
AcDbCircle
 10
-58.1665999999999
 20
25.53849869139156
 30
0.0
 40
0.5
100
AcDbArc
 50
180.0
 51
-90.00004118993981
  0
ARC
  5
1AA
102
{ACAD_REACTORS
330
1AD
330
1AD
102
}
330
1F
100
AcDbEntity
  8
1
  6
Continuous
 62
     7
100
AcDbCircle
 10
-58.1665999999999
 20
25.53849869139156
 30
0.0
 40
2.0
100
AcDbArc
 50
179.999999999992
 51
-90.00004118990806
  0
ARC
  5
1AB
330
1F
100
AcDbEntity
  8
1
  6
Continuous
 62
     7
100
AcDbCircle
 10
-61.19999999999993
 20
23.70001000000001
 30
0.0
 40
0.5
100
AcDbArc
 50
-179.9999999999988
 51
-90.0
  0
ARC
  5
1AC
330
1F
100
AcDbEntity
  8
1
  6
Continuous
 62
     7
100
AcDbCircle
 10
-61.19999999999993
 20
21.20001000000001
 30
0.0
 40
0.5
100
AcDbArc
 50
90.0
 51
180.0
  0
HATCH
  5
1AD
330
1F
100
AcDbEntity
  8
1
  6
Continuous
 62
     3
100
AcDbHatch
 10
0.0
 20
0.0
 30
0.0
210
0.0
220
0.0
230
1.0
  2
SOLID
 70
     1
 71
     1
 91
        2
 92
        1
 93
        8
 72
     2
 10
-32.16659699999991
 20
46.53848
 40
2.0
 50
0.0
 51
89.99995592628048
 73
     1
 72
     1
 10
-32.16659546153687
 20
48.53847999999959
 11
-58.16659846153698
 21
48.5385000000142
 72
     2
 10
-58.1665999999999
 20
46.5385
 40
2.000000000014795
 50
89.99995592628373
 51
180.0
 73
     1
 72
     1
 10
-60.1665999999999
 20
46.5385
 11
-60.1665999999999
 21
25.53849869139184
 72
     2
 10
-58.1665999999999
 20
25.53849869139156
 40
2.0
 50
179.999999999992
 51
269.9999588100919
 73
     1
 72
     1
 10
-58.16660143779893
 20
23.53849869139236
 11
-32.16660253846203
 21
23.53848000000041
 72
     2
 10
-32.1666009999999
 20
25.53848
 40
2.000000000000183
 50
269.9999559263065
 51
360.0
 73
     1
 72
     1
 10
-30.1666009999999
 20
25.53848
 11
-30.16659699999991
 21
46.53848
 97
        8
330
151
330
40
330
150
330
3F
330
1AA
330
117
330
152
330
41
 92
       16
 93
        8
 72
     2
 10
-58.1665999999999
 20
25.53849869139156
 40
0.5
 50
180.0
 51
269.9999588100602
 73
     1
 72
     1
 10
-58.16660035944994
 20
25.03849869139169
 11
-32.1666009999999
 21
25.03848000000001
 72
     2
 10
-32.1666009999999
 20
25.53848
 40
0.4999999999999893
 50
270.0
 51
360.0
 73
     1
 72
     1
 10
-31.6666009999999
 20
25.53848
 11
-31.66659699999991
 21
46.53848
 72
     2
 10
-32.16659699999991
 20
46.53848
 40
0.5
 50
0.0
 51
90.0
 73
     1
 72
     1
 10
-32.16659699999991
 20
47.03848
 11
-58.1665999999999
 21
47.0385
 72
     2
 10
-58.1665999999999
 20
46.5385
 40
0.5
 50
90.0
 51
180.0
 73
     1
 72
     1
 10
-58.6665999999999
 20
46.5385
 11
-58.6665999999999
 21
25.53849869139156
 97
        8
330
1A9
330
116
330
14D
330
3C
330
14E
330
3D
330
14F
330
3E
 75
     0
 76
     1
 98
        1
 10
0.0
 20
0.0
  0
HATCH
  5
1AE
330
1F
100
AcDbEntity
  8
1
  6
Continuous
 62
     3
100
AcDbHatch
 10
0.0
 20
0.0
 30
0.0
210
0.0
220
0.0
230
1.0
  2
SOLID
 70
     1
 71
     1
 91
        1
 92
        1
 93
       36
 72
     1
 10
43.46395000000007
 20
27.23682000000001
 11
43.46395000000007
 21
19.93680000000001
 72
     2
 10
43.96395000000007
 20
19.93680000000001
 40
0.5
 50
180.0
 51
270.0
 73
     1
 72
     1
 10
43.96395000000007
 20
19.43680000000001
 11
48.46395000000007
 21
19.43680000000001
 72
     2
 10
48.46395000000007
 20
17.43680000000001
 40
2.0
 50
270.0
 51
360.0
 73
     0
 72
     1
 10
50.46395000000007
 20
17.43680000000001
 11
50.46395000000007
 21
2.936802000000011
 72
     2
 10
48.46395000000007
 20
2.936802000000011
 40
2.0
 50
0.0
 51
90.0
 73
     0
 72
     1
 10
48.46395000000007
 20
0.9368020000000108
 11
43.96395000000007
 21
0.9368020000000108
 72
     2
 10
43.96395000000007
 20
0.4368020000000108
 40
0.5
 50
90.0
 51
180.0
 73
     1
 72
     1
 10
43.46395000000007
 20
0.4368020000000108
 11
43.46395000000007
 21
-9.063199999999991
 72
     2
 10
41.46395000000007
 20
-9.063199999999991
 40
1.999999999999998
 50
0.0
 51
90.0
 73
     0
 72
     1
 10
41.46395000000007
 20
-11.06319999999999
 11
4.963940000000093
 21
-11.06319999999999
 72
     2
 10
4.963940000000093
 20
-9.063199999999991
 40
2.0
 50
90.0
 51
180.0
 73
     0
 72
     1
 10
2.963940000000093
 20
-9.063199999999991
 11
2.963940000000093
 21
-4.063197999999989
 72
     1
 10
2.963940000000093
 20
-4.063197999999989
 11
4.713940000000093
 21
-4.063197999999989
 72
     1
 10
4.713940000000093
 20
-4.063197999999989
 11
4.713940000000093
 21
-9.063199999999991
 72
     2
 10
4.963940000000093
 20
-9.063199999999991
 40
0.25
 50
180.0
 51
270.0
 73
     1
 72
     1
 10
4.963940000000093
 20
-9.313199999999991
 11
41.46395000000007
 21
-9.313199999999991
 72
     2
 10
41.46395000000007
 20
-9.063199999999991
 40
0.25
 50
270.0
 51
360.0
 73
     1
 72
     1
 10
41.71395000000007
 20
-9.063199999999991
 11
41.71395000000007
 21
0.6868020000000108
 72
     2
 10
43.71395000000007
 20
0.6868020000000108
 40
2.0
 50
180.0
 51
270.0
 73
     0
 72
     1
 10
43.71395000000007
 20
2.686802000000011
 11
48.46395000000007
 21
2.686802000000011
 72
     2
 10
48.46395000000007
 20
2.936802000000011
 40
0.25
 50
270.0
 51
360.0
 73
     1
 72
     1
 10
48.71395000000007
 20
2.936802000000011
 11
48.71395000000007
 21
17.43680000000001
 72
     2
 10
48.46395000000007
 20
17.43680000000001
 40
0.25
 50
0.0
 51
90.0
 73
     1
 72
     1
 10
48.46395000000007
 20
17.68680000000001
 11
43.71395000000007
 21
17.68680000000001
 72
     2
 10
43.71395000000007
 20
19.68680000000001
 40
2.0
 50
90.0
 51
180.0
 73
     0
 72
     1
 10
41.71395000000007
 20
19.68680000000001
 11
41.71395000000007
 21
27.23682000000001
 72
     2
 10
41.46395000000007
 20
27.23682000000001
 40
0.25
 50
0.0
 51
90.0
 73
     1
 72
     1
 10
41.46395000000007
 20
27.48682000000001
 11
4.963940000000093
 21
27.48682000000001
 72
     2
 10
4.963940000000093
 20
27.23682000000001
 40
0.25
 50
90.0
 51
180.0
 73
     1
 72
     1
 10
4.713940000000093
 20
27.23682000000001
 11
4.713940000000093
 21
20.23682000000001
 72
     1
 10
4.713940000000093
 20
20.23682000000001
 11
2.963940000000093
 21
20.23682000000001
 72
     1
 10
2.963940000000093
 20
20.23682000000001
 11
2.963940000000093
 21
27.23682000000001
 72
     2
 10
4.963940000000093
 20
27.23682000000001
 40
2.0
 50
180.0
 51
270.0
 73
     0
 72
     1
 10
4.963940000000093
 20
29.23682000000001
 11
41.46395000000007
 21
29.23682000000001
 72
     2
 10
41.46395000000007
 20
27.23682000000001
 40
2.0
 50
270.0
 51
360.0
 73
     0
 97
       36
330
106
330
19F
330
107
330
109
330
112
330
1A0
330
111
330
1A1
330
110
330
1A6
330
10F
330
1A2
330
10E
330
1A3
330
10D
330
1A7
330
10C
330
1A4
330
114
330
1A5
330
10B
330
10A
330
108
330
19E
330
113
330
198
330
101
330
19D
330
102
330
199
330
103
330
19A
330
104
330
19C
330
105
330
19B
 75
     0
 76
     1
 98
        1
 10
0.0
 20
0.0
  0
ENDSEC
  0
SECTION
  2
OBJECTS
  0
DICTIONARY
  5
C
330
0
100
AcDbDictionary
281
     1
  3
ACAD_GROUP
350
D
  3
ACAD_LAYOUT
350
1A
  3
ACAD_MLINESTYLE
350
17
  3
ACAD_PLOTSETTINGS
350
19
  3
ACAD_PLOTSTYLENAME
350
E
  0
DICTIONARY
  5
D
102
{ACAD_REACTORS
330
C
102
}
330
C
100
AcDbDictionary
281
     1
  0
DICTIONARY
  5
1A
102
{ACAD_REACTORS
330
C
102
}
330
C
100
AcDbDictionary
281
     1
  3
Layout1
350
1E
  3
Layout2
350
26
  3
Model
350
22
  0
DICTIONARY
  5
17
102
{ACAD_REACTORS
330
C
102
}
330
C
100
AcDbDictionary
281
     1
  3
Standard
350
18
  0
DICTIONARY
  5
19
102
{ACAD_REACTORS
330
C
102
}
330
C
100
AcDbDictionary
281
     1
  0
ACDBDICTIONARYWDFLT
  5
E
102
{ACAD_REACTORS
330
C
102
}
330
C
100
AcDbDictionary
281
     1
  3
Normal
350
F
100
AcDbDictionaryWithDefault
340
F
  0
LAYOUT
  5
1E
102
{ACAD_REACTORS
330
1A
102
}
330
1A
100
AcDbPlotSettings
  1

  2

  4

  6

 40
0.0
 41
0.0
 42
0.0
 43
0.0
 44
0.0
 45
0.0
 46
0.0
 47
0.0
 48
0.0
 49
0.0
140
0.0
141
0.0
142
1.0
143
1.0
 70
   688
 72
     0
 73
     0
 74
     5
  7

 75
    16
 76
     0
 77
     2
 78
   300
147
1.0
148
0.0
149
0.0
100
AcDbLayout
  1
Layout1
 70
     1
 71
     1
 10
0.0
 20
0.0
 11
0.0
 21
0.0
 12
0.0
 22
0.0
 32
0.0
 14
0.0
 24
0.0
 34
0.0
 15
0.0
 25
0.0
 35
0.0
146
0.0
 13
0.0
 23
0.0
 33
0.0
 16
1.0
 26
0.0
 36
0.0
 17
0.0
 27
1.0
 37
0.0
 76
     0
330
1B
  0
LAYOUT
  5
26
102
{ACAD_REACTORS
330
1A
102
}
330
1A
100
AcDbPlotSettings
  1

  2

  4

  6

 40
0.0
 41
0.0
 42
0.0
 43
0.0
 44
0.0
 45
0.0
 46
0.0
 47
0.0
 48
0.0
 49
0.0
140
0.0
141
0.0
142
1.0
143
1.0
 70
   688
 72
     0
 73
     0
 74
     5
  7

 75
    16
 76
     0
 77
     2
 78
   300
147
1.0
148
0.0
149
0.0
100
AcDbLayout
  1
Layout2
 70
     1
 71
     2
 10
0.0
 20
0.0
 11
0.0
 21
0.0
 12
0.0
 22
0.0
 32
0.0
 14
0.0
 24
0.0
 34
0.0
 15
0.0
 25
0.0
 35
0.0
146
0.0
 13
0.0
 23
0.0
 33
0.0
 16
1.0
 26
0.0
 36
0.0
 17
0.0
 27
1.0
 37
0.0
 76
     0
330
23
  0
LAYOUT
  5
22
102
{ACAD_REACTORS
330
1A
102
}
330
1A
100
AcDbPlotSettings
  1

  2

  4

  6

 40
0.0
 41
0.0
 42
0.0
 43
0.0
 44
0.0
 45
0.0
 46
0.0
 47
0.0
 48
0.0
 49
0.0
140
0.0
141
0.0
142
1.0
143
1.0
 70
  1712
 72
     0
 73
     0
 74
     0
  7

 75
     0
 76
     0
 77
     2
 78
   300
147
1.0
148
0.0
149
0.0
100
AcDbLayout
  1
Model
 70
     1
 71
     0
 10
0.0
 20
0.0
 11
0.0
 21
0.0
 12
0.0
 22
0.0
 32
0.0
 14
-72.39999999999998
 24
-20.04998999999999
 34
0.0
 15
71.89996999999994
 25
64.400013
 35
0.0
146
0.0
 13
0.0
 23
0.0
 33
0.0
 16
1.0
 26
0.0
 36
0.0
 17
0.0
 27
1.0
 37
0.0
 76
     0
330
1F
  0
MLINESTYLE
  5
18
102
{ACAD_REACTORS
330
17
102
}
330
17
100
AcDbMlineStyle
  2
Standard
 70
     0
  3

 62
   256
 51
90.0
 52
90.0
 71
     2
 49
0.5
 62
   256
  6
BYLAYER
 49
-0.5
 62
   256
  6
BYLAYER
  0
ACDBPLACEHOLDER
  5
F
102
{ACAD_REACTORS
330
E
102
}
330
E
  0
ENDSEC
  0
EOF
