  0
SECTION
  2
HEADER
  9
$ACADVER
  1
AC1018
  9
$ACADMAINTVER
 70
     0
  9
$DWGCODEPAGE
  3
ANSI_1252
  9
$INSBASE
 10
0.0
 20
0.0
 30
0.0
  9
$EXTMIN
 10
-52.95495817295569
 20
-34.06658802093679
 30
0.0
  9
$EXTMAX
 10
59.06504177569433
 20
48.3834119790632
 30
0.0
  9
$LIMMIN
 10
0.0
 20
0.0
  9
$LIMMAX
 10
12.0
 20
9.0
  9
$ORTHOMODE
 70
     0
  9
$REGENMODE
 70
     1
  9
$FILLMODE
 70
     1
  9
$QTEXTMODE
 70
     0
  9
$MIRRTEXT
 70
     1
  9
$LTSCALE
 40
1.0
  9
$ATTMODE
 70
     1
  9
$TEXTSIZE
 40
0.2
  9
$TRACEWID
 40
0.05
  9
$TEXTSTYLE
  7
Standard
  9
$CLAYER
  8
0
  9
$CELTYPE
  6
ByLayer
  9
$CECOLOR
 62
   256
  9
$CELTSCALE
 40
1.0
  9
$DISPSILH
 70
     0
  9
$DIMSCALE
 40
1.0
  9
$DIMASZ
 40
0.18
  9
$DIMEXO
 40
0.0625
  9
$DIMDLI
 40
0.38
  9
$DIMRND
 40
0.0
  9
$DIMDLE
 40
0.0
  9
$DIMEXE
 40
0.18
  9
$DIMTP
 40
0.0
  9
$DIMTM
 40
0.0
  9
$DIMTXT
 40
0.18
  9
$DIMCEN
 40
0.09
  9
$DIMTSZ
 40
0.0
  9
$DIMTOL
 70
     0
  9
$DIMLIM
 70
     0
  9
$DIMTIH
 70
     1
  9
$DIMTOH
 70
     1
  9
$DIMSE1
 70
     0
  9
$DIMSE2
 70
     0
  9
$DIMTAD
 70
     0
  9
$DIMZIN
 70
     0
  9
$DIMBLK
  1

  9
$DIMASO
 70
     1
  9
$DIMSHO
 70
     1
  9
$DIMPOST
  1

  9
$DIMAPOST
  1

  9
$DIMALT
 70
     0
  9
$DIMALTD
 70
     2
  9
$DIMALTF
 40
25.4
  9
$DIMLFAC
 40
1.0
  9
$DIMTOFL
 70
     0
  9
$DIMTVP
 40
0.0
  9
$DIMTIX
 70
     0
  9
$DIMSOXD
 70
     0
  9
$DIMSAH
 70
     0
  9
$DIMBLK1
  1

  9
$DIMBLK2
  1

  9
$DIMSTYLE
  2
Standard
  9
$DIMCLRD
 70
     0
  9
$DIMCLRE
 70
     0
  9
$DIMCLRT
 70
     0
  9
$DIMTFAC
 40
1.0
  9
$DIMGAP
 40
0.09
  9
$DIMJUST
 70
     0
  9
$DIMSD1
 70
     0
  9
$DIMSD2
 70
     0
  9
$DIMTOLJ
 70
     1
  9
$DIMTZIN
 70
     0
  9
$DIMALTZ
 70
     0
  9
$DIMALTTZ
 70
     0
  9
$DIMUPT
 70
     0
  9
$DIMDEC
 70
     4
  9
$DIMTDEC
 70
     4
  9
$DIMALTU
 70
     2
  9
$DIMALTTD
 70
     2
  9
$DIMTXSTY
  7
Standard
  9
$DIMAUNIT
 70
     0
  9
$DIMADEC
 70
     0
  9
$DIMALTRND
 40
0.0
  9
$DIMAZIN
 70
     0
  9
$DIMDSEP
 70
    46
  9
$DIMATFIT
 70
     3
  9
$DIMFRAC
 70
     0
  9
$DIMLDRBLK
  1

  9
$DIMLUNIT
 70
     2
  9
$DIMLWD
 70
    -2
  9
$DIMLWE
 70
    -2
  9
$DIMTMOVE
 70
     0
  9
$LUNITS
 70
     2
  9
$LUPREC
 70
     4
  9
$SKETCHINC
 40
0.1
  9
$FILLETRAD
 40
0.5
  9
$AUNITS
 70
     0
  9
$AUPREC
 70
     0
  9
$MENU
  1
.
  9
$ELEVATION
 40
0.0
  9
$PELEVATION
 40
0.0
  9
$THICKNESS
 40
0.0
  9
$LIMCHECK
 70
     0
  9
$CHAMFERA
 40
0.5
  9
$CHAMFERB
 40
0.5
  9
$CHAMFERC
 40
1.0
  9
$CHAMFERD
 40
0.0
  9
$SKPOLY
 70
     0
  9
$TDCREATE
 40
2454483.374346065
  9
$TDUCREATE
 40
2454483.332679398
  9
$TDUPDATE
 40
2454483.374346077
  9
$TDUUPDATE
 40
2454483.33267941
  9
$TDINDWG
 40
0.0000000116
  9
$TDUSRTIMER
 40
0.0000000116
  9
$USRTIMER
 70
     1
  9
$ANGBASE
 50
0.0
  9
$ANGDIR
 70
     0
  9
$PDMODE
 70
     0
  9
$PDSIZE
 40
0.0
  9
$PLINEWID
 40
0.0
  9
$SPLFRAME
 70
     0
  9
$SPLINETYPE
 70
     6
  9
$SPLINESEGS
 70
     8
  9
$HANDSEED
  5
1A1
  9
$SURFTAB1
 70
     6
  9
$SURFTAB2
 70
     6
  9
$SURFTYPE
 70
     6
  9
$SURFU
 70
     6
  9
$SURFV
 70
     6
  9
$UCSBASE
  2

  9
$UCSNAME
  2

  9
$UCSORG
 10
0.0
 20
0.0
 30
0.0
  9
$UCSXDIR
 10
1.0
 20
0.0
 30
0.0
  9
$UCSYDIR
 10
0.0
 20
1.0
 30
0.0
  9
$UCSORTHOREF
  2

  9
$UCSORTHOVIEW
 70
     0
  9
$UCSORGTOP
 10
0.0
 20
0.0
 30
0.0
  9
$UCSORGBOTTOM
 10
0.0
 20
0.0
 30
0.0
  9
$UCSORGLEFT
 10
0.0
 20
0.0
 30
0.0
  9
$UCSORGRIGHT
 10
0.0
 20
0.0
 30
0.0
  9
$UCSORGFRONT
 10
0.0
 20
0.0
 30
0.0
  9
$UCSORGBACK
 10
0.0
 20
0.0
 30
0.0
  9
$PUCSBASE
  2

  9
$PUCSNAME
  2

  9
$PUCSORG
 10
0.0
 20
0.0
 30
0.0
  9
$PUCSXDIR
 10
1.0
 20
0.0
 30
0.0
  9
$PUCSYDIR
 10
0.0
 20
1.0
 30
0.0
  9
$PUCSORTHOREF
  2

  9
$PUCSORTHOVIEW
 70
     0
  9
$PUCSORGTOP
 10
0.0
 20
0.0
 30
0.0
  9
$PUCSORGBOTTOM
 10
0.0
 20
0.0
 30
0.0
  9
$PUCSORGLEFT
 10
0.0
 20
0.0
 30
0.0
  9
$PUCSORGRIGHT
 10
0.0
 20
0.0
 30
0.0
  9
$PUCSORGFRONT
 10
0.0
 20
0.0
 30
0.0
  9
$PUCSORGBACK
 10
0.0
 20
0.0
 30
0.0
  9
$USERI1
 70
     0
  9
$USERI2
 70
     0
  9
$USERI3
 70
     0
  9
$USERI4
 70
     0
  9
$USERI5
 70
     0
  9
$USERR1
 40
14.5
  9
$USERR2
 40
0.0
  9
$USERR3
 40
0.0
  9
$USERR4
 40
0.0
  9
$USERR5
 40
0.0
  9
$WORLDVIEW
 70
     1
  9
$SHADEDGE
 70
     3
  9
$SHADEDIF
 70
    70
  9
$TILEMODE
 70
     1
  9
$MAXACTVP
 70
    64
  9
$PINSBASE
 10
0.0
 20
0.0
 30
0.0
  9
$PLIMCHECK
 70
     0
  9
$PEXTMIN
 10
1.00000000000000E+20
 20
1.00000000000000E+20
 30
1.00000000000000E+20
  9
$PEXTMAX
 10
-1.00000000000000E+20
 20
-1.00000000000000E+20
 30
-1.00000000000000E+20
  9
$PLIMMIN
 10
0.0
 20
0.0
  9
$PLIMMAX
 10
12.0
 20
9.0
  9
$UNITMODE
 70
     0
  9
$VISRETAIN
 70
     1
  9
$PLINEGEN
 70
     0
  9
$PSLTSCALE
 70
     1
  9
$TREEDEPTH
 70
  3020
  9
$CMLSTYLE
  2
Standard
  9
$CMLJUST
 70
     0
  9
$CMLSCALE
 40
1.0
  9
$PROXYGRAPHICS
 70
     1
  9
$MEASUREMENT
 70
     1
  9
$CELWEIGHT
370
    -1
  9
$ENDCAPS
280
     0
  9
$JOINSTYLE
280
     0
  9
$LWDISPLAY
290
     0
  9
$INSUNITS
 70
     1
  9
$HYPERLINKBASE
  1

  9
$STYLESHEET
  1

  9
$XEDIT
290
     1
  9
$CEPSNTYPE
380
     0
  9
$PSTYLEMODE
290
     1
  9
$FINGERPRINTGUID
  2
{1DDBB633-726B-40CA-8902-6E9DAA690C79}
  9
$VERSIONGUID
  2
{FAEB1C32-E019-11D5-929B-00C0DF256EC4}
  9
$EXTNAMES
290
     1
  9
$PSVPSCALE
 40
0.0
  9
$OLESTARTUP
290
     0
  9
$SORTENTS
280
   127
  9
$INDEXCTL
280
     0
  9
$HIDETEXT
280
     1
  9
$XCLIPFRAME
290
     0
  9
$HALOGAP
280
     0
  9
$OBSCOLOR
 70
   257
  9
$OBSLTYPE
280
     0
  9
$INTERSECTIONDISPLAY
280
     0
  9
$INTERSECTIONCOLOR
 70
   257
  9
$DIMASSOC
280
     2
  9
$PROJECTNAME
  1

  0
ENDSEC
  0
SECTION
  2
CLASSES
  0
CLASS
  1
ACDBDICTIONARYWDFLT
  2
AcDbDictionaryWithDefault
  3
ObjectDBX Classes
 90
        0
 91
        3
280
     0
281
     0
  0
ENDSEC
  0
SECTION
  2
TABLES
  0
TABLE
  2
VPORT
  5
8
330
0
100
AcDbSymbolTable
 70
     1
  0
VPORT
  5
29
330
8
100
AcDbSymbolTableRecord
100
AcDbViewportTableRecord
  2
*Active
 70
     0
 10
0.0
 20
0.0
 11
1.0
 21
1.0
 12
3.05504180136932
 22
7.1584119790632
 13
0.0
 23
0.0
 14
0.5
 24
0.5
 15
0.5
 25
0.5
 16
0.0
 26
0.0
 36
1.0
 17
0.0
 27
0.0
 37
0.0
 40
90.695
 41
1.60267857142857
 42
50.0
 43
0.0
 44
0.0
 50
0.0
 51
0.0
 71
     0
 72
   100
 73
     1
 74
     3
 75
     0
 76
     0
 77
     0
 78
     0
281
     0
 65
     1
110
0.0
120
0.0
130
0.0
111
1.0
121
0.0
131
0.0
112
0.0
122
1.0
132
0.0
 79
     0
146
0.0
  0
ENDTAB
  0
TABLE
  2
LTYPE
  5
5
330
0
100
AcDbSymbolTable
 70
     8
  0
LTYPE
  5
14
330
5
100
AcDbSymbolTableRecord
100
AcDbLinetypeTableRecord
  2
ByBlock
 70
     0
  3

 72
    65
 73
     0
 40
0.0
  0
LTYPE
  5
15
330
5
100
AcDbSymbolTableRecord
100
AcDbLinetypeTableRecord
  2
ByLayer
 70
     0
  3

 72
    65
 73
     0
 40
0.0
  0
LTYPE
  5
16
330
5
100
AcDbSymbolTableRecord
100
AcDbLinetypeTableRecord
  2
Continuous
 70
     0
  3
Solid line
 72
    65
 73
     0
 40
0.0
  0
LTYPE
  5
2A
330
5
100
AcDbSymbolTableRecord
100
AcDbLinetypeTableRecord
  2
DASHED
 70
     0
  3
Dashed
 72
    65
 73
     2
 40
15.0
 49
7.0
 74
     0
 49
-8.0
 74
     0
  0
LTYPE
  5
2B
330
5
100
AcDbSymbolTableRecord
100
AcDbLinetypeTableRecord
  2
DOTTED
 70
     0
  3
Dotted
 72
    65
 73
     2
 40
1.0
 49
0.0
 74
     0
 49
-1.0
 74
     0
  0
LTYPE
  5
2C
330
5
100
AcDbSymbolTableRecord
100
AcDbLinetypeTableRecord
  2
DOT_CENTER
 70
     0
  3
Dot_Center
 72
    65
 73
     4
 40
14.0
 49
12.0
 74
     0
 49
-1.0
 74
     0
 49
0.0
 74
     0
 49
-1.0
 74
     0
  0
LTYPE
  5
2D
330
5
100
AcDbSymbolTableRecord
100
AcDbLinetypeTableRecord
  2
LONG_DASHED
 70
     0
  3
Long_Dashed
 72
    65
 73
     2
 40
15.0
 49
10.0
 74
     0
 49
-5.0
 74
     0
  0
LTYPE
  5
2E
330
5
100
AcDbSymbolTableRecord
100
AcDbLinetypeTableRecord
  2
DASH_CENTER
 70
     0
  3
Dash_Center
 72
    65
 73
     4
 40
14.0
 49
11.0
 74
     0
 49
-1.0
 74
     0
 49
1.0
 74
     0
 49
-1.0
 74
     0
  0
LTYPE
  5
2F
330
5
100
AcDbSymbolTableRecord
100
AcDbLinetypeTableRecord
  2
PHANTOM
 70
     0
  3
Phantom
 72
    65
 73
     6
 40
13.0
 49
10.0
 74
     0
 49
-1.0
 74
     0
 49
0.0
 74
     0
 49
-1.0
 74
     0
 49
0.0
 74
     0
 49
-1.0
 74
     0
  0
LTYPE
  5
30
330
5
100
AcDbSymbolTableRecord
100
AcDbLinetypeTableRecord
  2
CENTER_DASH_DASH
 70
     0
  3
Center_Dash_Dash
 72
    65
 73
     6
 40
14.0
 49
9.0
 74
     0
 49
-1.0
 74
     0
 49
1.0
 74
     0
 49
-1.0
 74
     0
 49
1.0
 74
     0
 49
-1.0
 74
     0
  0
ENDTAB
  0
TABLE
  2
LAYER
  5
2
330
0
100
AcDbSymbolTable
 70
     2
  0
LAYER
  5
10
330
2
100
AcDbSymbolTableRecord
100
AcDbLayerTableRecord
  2
0
 70
     0
 62
     7
  6
Continuous
370
    -3
390
F
  0
LAYER
  5
31
330
2
100
AcDbSymbolTableRecord
100
AcDbLayerTableRecord
  2
1
 70
     0
 62
     7
  6
Continuous
370
    -3
390
F
  0
ENDTAB
  0
TABLE
  2
STYLE
  5
3
330
0
100
AcDbSymbolTable
 70
     1
  0
STYLE
  5
11
330
3
100
AcDbSymbolTableRecord
100
AcDbTextStyleTableRecord
  2
Standard
 70
     0
 40
0.0
 41
1.0
 50
0.0
 71
     0
 42
0.2
  3
txt
  4

  0
ENDTAB
  0
TABLE
  2
VIEW
  5
6
330
0
100
AcDbSymbolTable
 70
     0
  0
ENDTAB
  0
TABLE
  2
UCS
  5
7
330
0
100
AcDbSymbolTable
 70
     0
  0
ENDTAB
  0
TABLE
  2
APPID
  5
9
330
0
100
AcDbSymbolTable
 70
     1
  0
APPID
  5
12
330
9
100
AcDbSymbolTableRecord
100
AcDbRegAppTableRecord
  2
ACAD
 70
     0
  0
ENDTAB
  0
TABLE
  2
DIMSTYLE
  5
A
330
0
100
AcDbSymbolTable
 70
     1
100
AcDbDimStyleTable
  0
DIMSTYLE
105
27
330
A
100
AcDbSymbolTableRecord
100
AcDbDimStyleTableRecord
  2
Standard
 70
     0
340
11
  0
ENDTAB
  0
TABLE
  2
BLOCK_RECORD
  5
1
330
0
100
AcDbSymbolTable
 70
     1
  0
BLOCK_RECORD
  5
1F
330
1
100
AcDbSymbolTableRecord
100
AcDbBlockTableRecord
  2
*Model_Space
340
22
  0
BLOCK_RECORD
  5
1B
330
1
100
AcDbSymbolTableRecord
100
AcDbBlockTableRecord
  2
*Paper_Space
340
1E
  0
BLOCK_RECORD
  5
23
330
1
100
AcDbSymbolTableRecord
100
AcDbBlockTableRecord
  2
*Paper_Space0
340
26
  0
ENDTAB
  0
ENDSEC
  0
SECTION
  2
BLOCKS
  0
BLOCK
  5
20
330
1F
100
AcDbEntity
  8
0
100
AcDbBlockBegin
  2
*Model_Space
 70
     0
 71
     0
 10
0.0
 20
0.0
 30
0.0
  3
*Model_Space
  1

  0
ENDBLK
  5
21
330
1F
100
AcDbEntity
  8
0
100
AcDbBlockEnd
  0
BLOCK
  5
1C
330
1B
100
AcDbEntity
 67
     1
  8
0
100
AcDbBlockBegin
  2
*Paper_Space
 70
     0
 71
     0
 10
0.0
 20
0.0
 30
0.0
  3
*Paper_Space
  1

  0
ENDBLK
  5
1D
330
1B
100
AcDbEntity
 67
     1
  8
0
100
AcDbBlockEnd
  0
BLOCK
  5
24
330
23
100
AcDbEntity
  8
0
100
AcDbBlockBegin
  2
*Paper_Space0
 70
     0
 71
     0
 10
0.0
 20
0.0
 30
0.0
  3
*Paper_Space0
  1

  0
ENDBLK
  5
25
330
23
100
AcDbEntity
  8
0
100
AcDbBlockEnd
  0
ENDSEC
  0
SECTION
  2
ENTITIES
  0
POINT
  5
32
330
1F
100
AcDbEntity
  8
1
 62
     3
 60
     1
100
AcDbPoint
 10
18.0
 20
-24.0
 30
0.0
  0
POINT
  5
33
330
1F
100
AcDbEntity
  8
1
 62
     3
 60
     1
100
AcDbPoint
 10
12.24504182704435
 20
18.3834119790632
 30
0.0
  0
POINT
  5
34
330
1F
100
AcDbEntity
  8
1
 62
     3
 60
     1
100
AcDbPoint
 10
12.24504182704435
 20
16.8834119790632
 30
0.0
  0
POINT
  5
35
330
1F
100
AcDbEntity
  8
1
 62
     3
 60
     1
100
AcDbPoint
 10
18.0
 20
-23.1165880209368
 30
0.0
  0
POINT
  5
36
330
1F
100
AcDbEntity
  8
1
 62
     3
 60
     1
100
AcDbPoint
 10
18.0
 20
-24.6165880209368
 30
0.0
  0
LINE
  5
37
330
1F
100
AcDbEntity
  8
0
  6
Continuous
 62
     7
100
AcDbLine
 10
40.43641382704432
 20
21.3834119790632
 30
0.0
 11
36.01372482704431
 21
22.80555097906322
 31
0.0
  0
LINE
  5
38
330
1F
100
AcDbEntity
  8
0
  6
Continuous
 62
     7
100
AcDbLine
 10
48.56504182704431
 20
21.3834119790632
 30
0.0
 11
40.43641382704432
 21
21.3834119790632
 31
0.0
  0
LINE
  5
39
330
1F
100
AcDbEntity
  8
0
  6
Continuous
 62
     7
100
AcDbLine
 10
48.56504182704431
 20
22.8834119790632
 30
0.0
 11
48.56504182704431
 21
21.3834119790632
 31
0.0
  0
LINE
  5
3A
330
1F
100
AcDbEntity
  8
0
  6
Continuous
 62
     7
100
AcDbLine
 10
53.96723182704433
 20
25.3834119790632
 30
0.0
 11
51.06504182704431
 21
25.3834119790632
 31
0.0
  0
LINE
  5
3B
330
1F
100
AcDbEntity
  8
0
  6
Continuous
 62
     7
100
AcDbLine
 10
59.04800482704432
 20
18.01282097906321
 30
0.0
 11
58.81473082704433
 21
18.8834119790632
 31
0.0
  0
LINE
  5
3C
330
1F
100
AcDbEntity
  8
0
  6
Continuous
 62
     7
100
AcDbLine
 10
58.02826082704432
 20
17.9548529790632
 30
0.0
 11
58.08207882704433
 21
17.7540019790632
 31
0.0
  0
LINE
  5
3D
330
1F
100
AcDbEntity
  8
0
  6
Continuous
 62
     7
100
AcDbLine
 10
57.97805265333342
 20
18.14223102416575
 30
0.0
 11
58.02826082704432
 21
17.9548529790632
 31
0.0
  0
LINE
  5
3E
330
1F
100
AcDbEntity
  8
0
  6
Continuous
 62
     7
100
AcDbLine
 10
56.06504182704431
 20
18.8834119790632
 30
0.0
 11
57.01212682704433
 21
18.8834119790632
 31
0.0
  0
LINE
  5
3F
330
1F
100
AcDbEntity
  8
0
  6
Continuous
 62
     7
100
AcDbLine
 10
55.06504182704431
 20
20.3834119790632
 30
0.0
 11
55.06504182704431
 21
19.8834119790632
 31
0.0
  0
LINE
  5
40
330
1F
100
AcDbEntity
  8
0
  6
Continuous
 62
     7
100
AcDbLine
 10
55.95979265333342
 20
22.64223102416575
 30
0.0
 11
56.56504182704431
 21
20.3834119790632
 31
0.0
  0
LINE
  5
41
330
1F
100
AcDbEntity
  8
0
  6
Continuous
 62
     7
100
AcDbLine
 10
51.56504182704431
 20
23.3834119790632
 30
0.0
 11
54.99386682704433
 21
23.3834119790632
 31
0.0
  0
LINE
  5
42
330
1F
100
AcDbEntity
  8
0
  6
Continuous
 62
     7
100
AcDbLine
 10
50.56504182704431
 20
20.3834119790632
 30
0.0
 11
50.56504182704431
 21
22.3834119790632
 31
0.0
  0
LINE
  5
43
330
1F
100
AcDbEntity
  8
0
  6
Continuous
 62
     7
100
AcDbLine
 10
52.06504182704431
 20
20.3834119790632
 30
0.0
 11
50.56504182704431
 21
20.3834119790632
 31
0.0
  0
LINE
  5
44
330
1F
100
AcDbEntity
  8
0
  6
Continuous
 62
     7
100
AcDbLine
 10
52.06504182704431
 20
19.8834119790632
 30
0.0
 11
52.06504182704431
 21
20.3834119790632
 31
0.0
  0
LINE
  5
45
330
1F
100
AcDbEntity
  8
0
  6
Continuous
 62
     7
100
AcDbLine
 10
51.14026782704433
 20
25.3834119790632
 30
0.0
 11
51.06504182704431
 21
25.3834119790632
 31
0.0
  0
LINE
  5
46
330
1F
100
AcDbEntity
  8
0
  6
Continuous
 62
     7
100
AcDbLine
 10
55.06504182704431
 20
20.3834119790632
 30
0.0
 11
56.56504182704431
 21
20.3834119790632
 31
0.0
  0
LINE
  5
47
330
1F
100
AcDbEntity
  8
0
  6
Continuous
 62
     7
100
AcDbLine
 10
38.54504182704432
 20
-15.11658802093679
 30
0.0
 11
36.71605189870722
 21
-15.78228633132974
 31
0.0
  0
LINE
  5
48
330
1F
100
AcDbEntity
  8
0
  6
Continuous
 62
     7
100
AcDbLine
 10
39.04504182704432
 20
-15.11658802093679
 30
0.0
 11
38.54504182704432
 21
-15.11658802093679
 31
0.0
  0
LINE
  5
49
330
1F
100
AcDbEntity
  8
0
  6
Continuous
 62
     7
100
AcDbLine
 10
39.04504182704432
 20
-19.11658802093679
 30
0.0
 11
39.04504182704432
 21
-15.11658802093679
 31
0.0
  0
LINE
  5
4A
330
1F
100
AcDbEntity
  8
0
  6
Continuous
 62
     7
100
AcDbLine
 10
38.54504182704432
 20
-19.11658802093679
 30
0.0
 11
39.04504182704432
 21
-19.11658802093679
 31
0.0
  0
LINE
  5
4B
330
1F
100
AcDbEntity
  8
0
  6
Continuous
 62
     7
100
AcDbLine
 10
33.69337582704432
 20
-17.81658802093678
 30
0.0
 11
38.54504182704432
 21
-19.11658802093679
 31
0.0
  0
LINE
  5
4C
330
1F
100
AcDbEntity
  8
0
  6
Continuous
 62
     7
100
AcDbLine
 10
32.04504182704432
 20
-24.1165880209368
 30
0.0
 11
32.04504182704432
 21
-18.81658802093678
 31
0.0
  0
LINE
  5
4D
330
1F
100
AcDbEntity
  8
0
  6
Continuous
 62
     7
100
AcDbLine
 10
36.04504182704432
 20
-25.1165880209368
 30
0.0
 11
33.04504182704432
 21
-25.1165880209368
 31
0.0
  0
LINE
  5
4E
330
1F
100
AcDbEntity
  8
0
  6
Continuous
 62
     7
100
AcDbLine
 10
37.04504182704432
 20
-23.5185120209368
 30
0.0
 11
37.04504182704432
 21
-24.1165880209368
 31
0.0
  0
LINE
  5
4F
330
1F
100
AcDbEntity
  8
0
  6
Continuous
 62
     7
100
AcDbLine
 10
38.54504182704432
 20
-23.11658802093679
 30
0.0
 11
37.04504182704432
 21
-23.5185120209368
 31
0.0
  0
LINE
  5
50
330
1F
100
AcDbEntity
  8
0
  6
Continuous
 62
     7
100
AcDbLine
 10
39.04504182704432
 20
-23.11658802093679
 30
0.0
 11
38.54504182704432
 21
-23.11658802093679
 31
0.0
  0
LINE
  5
51
330
1F
100
AcDbEntity
  8
0
  6
Continuous
 62
     7
100
AcDbLine
 10
39.04504182704432
 20
-27.11658802093679
 30
0.0
 11
39.04504182704432
 21
-23.11658802093679
 31
0.0
  0
LINE
  5
52
330
1F
100
AcDbEntity
  8
0
  6
Continuous
 62
     7
100
AcDbLine
 10
-7.98494317295565
 20
-28.1165880209368
 30
0.0
 11
38.04504182704432
 21
-28.1165880209368
 31
0.0
  0
LINE
  5
53
330
1F
100
AcDbEntity
  8
0
  6
Continuous
 62
     7
100
AcDbLine
 10
33.69337582704432
 20
-17.81658802093678
 30
0.0
 11
33.04504182704432
 21
-17.81658802093678
 31
0.0
  0
LINE
  5
54
330
1F
100
AcDbEntity
  8
0
  6
Continuous
 62
     7
100
AcDbLine
 10
36.04504182704432
 20
11.38465597906319
 30
0.0
 11
34.19246182704431
 21
16.53761797906319
 31
0.0
  0
LINE
  5
55
330
1F
100
AcDbEntity
  8
0
  6
Continuous
 62
     7
100
AcDbLine
 10
40.04504182704432
 20
18.8834119790632
 30
0.0
 11
37.41124372315352
 21
19.72855467731782
 31
0.0
  0
LINE
  5
56
330
1F
100
AcDbEntity
  8
0
  6
Continuous
 62
     7
100
AcDbLine
 10
58.81473082704433
 20
18.8834119790632
 30
0.0
 11
55.72858847962253
 21
30.40105006926826
 31
0.0
  0
LINE
  5
57
330
1F
100
AcDbEntity
  8
0
  6
Continuous
 62
     7
100
AcDbLine
 10
51.06504182704431
 20
18.8834119790632
 30
0.0
 11
40.04504182704432
 21
18.8834119790632
 31
0.0
  0
LINE
  5
58
330
1F
100
AcDbEntity
  8
0
  6
Continuous
 62
     7
100
AcDbLine
 10
53.79673682704431
 20
31.8834119790632
 30
0.0
 11
9.04504182704433
 21
31.8834119790632
 31
0.0
  0
LINE
  5
59
330
1F
100
AcDbEntity
  8
0
  6
Continuous
 62
     7
100
AcDbLine
 10
53.96723182704433
 20
25.3834119790632
 30
0.0
 11
53.02940982704432
 21
28.8834119790632
 31
0.0
  0
LINE
  5
5A
330
1F
100
AcDbEntity
  8
0
  6
Continuous
 62
     7
100
AcDbLine
 10
33.86665282704432
 20
28.8834119790632
 30
0.0
 11
15.74504182704432
 21
28.8834119790632
 31
0.0
  0
LINE
  5
5B
330
1F
100
AcDbEntity
  8
0
  6
Continuous
 62
     7
100
AcDbLine
 10
31.56608582704432
 20
18.8834119790632
 30
0.0
 11
11.74504182704435
 21
18.8834119790632
 31
0.0
  0
LINE
  5
5C
330
1F
100
AcDbEntity
  8
0
  6
Continuous
 62
     7
100
AcDbLine
 10
9.62957482704435
 20
22.37621397906324
 30
0.0
 11
12.46050889390283
 21
21.89060960161917
 31
0.0
  0
LINE
  5
5D
330
1F
100
AcDbEntity
  8
0
  6
Continuous
 62
     7
100
AcDbLine
 10
9.62957476018586
 20
28.89060960161917
 30
0.0
 11
12.46050882704434
 21
29.37621397906322
 31
0.0
  0
LINE
  5
5E
330
1F
100
AcDbEntity
  8
0
  6
Continuous
 62
     7
100
AcDbLine
 10
9.04504182704433
 20
31.8834119790632
 30
0.0
 11
9.04504182704433
 21
29.3834119790632
 31
0.0
  0
LINE
  5
5F
330
1F
100
AcDbEntity
  8
0
  6
Continuous
 62
     7
100
AcDbLine
 10
13.04504182704433
 20
28.8834119790632
 30
0.0
 11
13.04504182704433
 21
22.3834119790632
 31
0.0
  0
LINE
  5
60
330
1F
100
AcDbEntity
  8
0
  6
Continuous
 62
     7
100
AcDbLine
 10
9.04504182704433
 20
21.8834119790632
 30
0.0
 11
9.04504182704433
 21
9.3834119790632
 31
0.0
  0
LINE
  5
61
330
1F
100
AcDbEntity
  8
0
  6
Continuous
 62
     7
100
AcDbLine
 10
36.01372482704431
 20
22.80555097906322
 30
0.0
 11
35.37491582704432
 21
28.8834119790632
 31
0.0
  0
LINE
  5
62
330
1F
100
AcDbEntity
  8
0
  6
Continuous
 62
     7
100
AcDbLine
 10
34.56977582704433
 20
22.19364297906319
 30
0.0
 11
33.86665282704432
 21
28.8834119790632
 31
0.0
  0
LINE
  5
63
330
1F
100
AcDbEntity
  8
0
  6
Continuous
 62
     7
100
AcDbLine
 10
53.02940982704432
 20
28.8834119790632
 30
0.0
 11
35.37491582704432
 21
28.8834119790632
 31
0.0
  0
LINE
  5
64
330
1F
100
AcDbEntity
  8
0
  6
Continuous
 62
     7
100
AcDbLine
 10
24.74504182704432
 20
-1.71658802093676
 30
0.0
 11
24.74504182704432
 21
-6.81658802093678
 31
0.0
  0
LINE
  5
65
330
1F
100
AcDbEntity
  8
0
  6
Continuous
 62
     7
100
AcDbLine
 10
27.24504182704432
 20
-0.71658802093676
 30
0.0
 11
24.74504182704432
 21
-1.71658802093676
 31
0.0
  0
LINE
  5
66
330
1F
100
AcDbEntity
  8
0
  6
Continuous
 62
     7
100
AcDbLine
 10
27.24504182704432
 20
0.28341197906324
 30
0.0
 11
27.24504182704432
 21
-0.71658802093676
 31
0.0
  0
LINE
  5
67
330
1F
100
AcDbEntity
  8
0
  6
Continuous
 62
     7
100
AcDbLine
 10
24.74504182704432
 20
0.28341197906324
 30
0.0
 11
27.24504182704432
 21
0.28341197906324
 31
0.0
  0
LINE
  5
68
330
1F
100
AcDbEntity
  8
0
  6
Continuous
 62
     7
100
AcDbLine
 10
24.74504182704432
 20
2.28341197906324
 30
0.0
 11
24.74504182704432
 21
0.28341197906324
 31
0.0
  0
LINE
  5
69
330
1F
100
AcDbEntity
  8
0
  6
Continuous
 62
     7
100
AcDbLine
 10
27.24504182704432
 20
2.28341197906324
 30
0.0
 11
24.74504182704432
 21
2.28341197906324
 31
0.0
  0
LINE
  5
6A
330
1F
100
AcDbEntity
  8
0
  6
Continuous
 62
     7
100
AcDbLine
 10
27.24504182704432
 20
3.28341197906324
 30
0.0
 11
27.24504182704432
 21
2.28341197906324
 31
0.0
  0
LINE
  5
6B
330
1F
100
AcDbEntity
  8
0
  6
Continuous
 62
     7
100
AcDbLine
 10
24.74504182704432
 20
4.28341197906324
 30
0.0
 11
27.24504182704432
 21
3.28341197906324
 31
0.0
  0
LINE
  5
6C
330
1F
100
AcDbEntity
  8
0
  6
Continuous
 62
     7
100
AcDbLine
 10
24.74504182704432
 20
9.3834119790632
 30
0.0
 11
24.74504182704432
 21
4.28341197906324
 31
0.0
  0
LINE
  5
6D
330
1F
100
AcDbEntity
  8
0
  6
Continuous
 62
     7
100
AcDbLine
 10
11.54504182704433
 20
9.3834119790632
 30
0.0
 11
9.04504182704433
 21
9.3834119790632
 31
0.0
  0
LINE
  5
6E
330
1F
100
AcDbEntity
  8
0
  6
Continuous
 62
     7
100
AcDbLine
 10
11.54504182704433
 20
7.3834119790632
 30
0.0
 11
11.54504182704433
 21
9.3834119790632
 31
0.0
  0
LINE
  5
6F
330
1F
100
AcDbEntity
  8
0
  6
Continuous
 62
     7
100
AcDbLine
 10
14.04504182704433
 20
7.3834119790632
 30
0.0
 11
11.54504182704433
 21
7.3834119790632
 31
0.0
  0
LINE
  5
70
330
1F
100
AcDbEntity
  8
0
  6
Continuous
 62
     7
100
AcDbLine
 10
14.04504182704433
 20
9.3834119790632
 30
0.0
 11
14.04504182704433
 21
7.3834119790632
 31
0.0
  0
LINE
  5
71
330
1F
100
AcDbEntity
  8
0
  6
Continuous
 62
     7
100
AcDbLine
 10
22.04504182704432
 20
9.3834119790632
 30
0.0
 11
14.04504182704433
 21
9.3834119790632
 31
0.0
  0
LINE
  5
72
330
1F
100
AcDbEntity
  8
0
  6
Continuous
 62
     7
100
AcDbLine
 10
22.04504182704432
 20
1.70767597906323
 30
0.0
 11
22.04504182704432
 21
9.3834119790632
 31
0.0
  0
LINE
  5
73
330
1F
100
AcDbEntity
  8
0
  6
Continuous
 62
     7
100
AcDbLine
 10
22.25717382704431
 20
1.49554397906323
 30
0.0
 11
22.04504182704432
 21
1.70767597906323
 31
0.0
  0
LINE
  5
74
330
1F
100
AcDbEntity
  8
0
  6
Continuous
 62
     7
100
AcDbLine
 10
22.04504182704432
 20
0.85914797906324
 30
0.0
 11
22.25717386140032
 21
1.07127994470725
 31
0.0
  0
LINE
  5
75
330
1F
100
AcDbEntity
  8
0
  6
Continuous
 62
     7
100
AcDbLine
 10
22.04504182704432
 20
-6.81658802093678
 30
0.0
 11
22.04504182704432
 21
0.85914797906324
 31
0.0
  0
LINE
  5
76
330
1F
100
AcDbEntity
  8
0
  6
Continuous
 62
     7
100
AcDbLine
 10
14.04504182704433
 20
-6.81658802093678
 30
0.0
 11
22.04504182704432
 21
-6.81658802093678
 31
0.0
  0
LINE
  5
77
330
1F
100
AcDbEntity
  8
0
  6
Continuous
 62
     7
100
AcDbLine
 10
14.04504182704433
 20
-4.81658802093678
 30
0.0
 11
14.04504182704433
 21
-6.81658802093678
 31
0.0
  0
LINE
  5
78
330
1F
100
AcDbEntity
  8
0
  6
Continuous
 62
     7
100
AcDbLine
 10
11.54504182704433
 20
-4.81658802093678
 30
0.0
 11
14.04504182704433
 21
-4.81658802093678
 31
0.0
  0
LINE
  5
79
330
1F
100
AcDbEntity
  8
0
  6
Continuous
 62
     7
100
AcDbLine
 10
11.54504182704433
 20
-6.81658802093678
 30
0.0
 11
11.54504182704433
 21
-4.81658802093678
 31
0.0
  0
LINE
  5
7A
330
1F
100
AcDbEntity
  8
0
  6
Continuous
 62
     7
100
AcDbLine
 10
9.04504182704433
 20
-6.81658802093678
 30
0.0
 11
11.54504182704433
 21
-6.81658802093678
 31
0.0
  0
LINE
  5
7B
330
1F
100
AcDbEntity
  8
0
  6
Continuous
 62
     7
100
AcDbLine
 10
36.04504182704432
 20
11.38465597906319
 30
0.0
 11
36.04504182704432
 21
-4.1923240209368
 31
0.0
  0
LINE
  5
7C
330
1F
100
AcDbEntity
  8
0
  6
Continuous
 62
     7
100
AcDbLine
 10
35.83290979268841
 20
-4.82872005529273
 30
0.0
 11
36.04504182704432
 21
-5.04085202093679
 31
0.0
  0
LINE
  5
7D
330
1F
100
AcDbEntity
  8
0
  6
Continuous
 62
     7
100
AcDbLine
 10
35.83290982704432
 20
-4.4044560209368
 30
0.0
 11
36.04504182704432
 21
-4.1923240209368
 31
0.0
  0
LINE
  5
7E
330
1F
100
AcDbEntity
  8
0
  6
Continuous
 62
     7
100
AcDbLine
 10
36.04504182704432
 20
-5.04085202093679
 30
0.0
 11
36.04504182704432
 21
-15.3124400209368
 31
0.0
  0
LINE
  5
7F
330
1F
100
AcDbEntity
  8
0
  6
Continuous
 62
     7
100
AcDbLine
 10
-1.95495817295567
 20
-21.6165880209368
 30
0.0
 11
-1.95495817295567
 21
-25.1165880209368
 31
0.0
  0
LINE
  5
80
330
1F
100
AcDbEntity
  8
0
  6
Continuous
 62
     7
100
AcDbLine
 10
-7.37482217295566
 20
-21.6165880209368
 30
0.0
 11
-1.95495817295567
 21
-21.6165880209368
 31
0.0
  0
LINE
  5
81
330
1F
100
AcDbEntity
  8
0
  6
Continuous
 62
     7
100
AcDbLine
 10
-7.06861217295567
 20
-25.1165880209368
 30
0.0
 11
-7.37482217295566
 21
-21.6165880209368
 31
0.0
  0
LINE
  5
82
330
1F
100
AcDbEntity
  8
0
  6
Continuous
 62
     7
100
AcDbLine
 10
-2.95495817295567
 20
-15.1165880209368
 30
0.0
 11
9.04504182704433
 21
-15.1165880209368
 31
0.0
  0
LINE
  5
83
330
1F
100
AcDbEntity
  8
0
  6
Continuous
 62
     7
100
AcDbLine
 10
-2.45495817295567
 20
-16.6165880209368
 30
0.0
 11
-3.95495817295567
 21
-16.6165880209368
 31
0.0
  0
LINE
  5
84
330
1F
100
AcDbEntity
  8
0
  6
Continuous
 62
     7
100
AcDbLine
 10
-2.45495817295567
 20
-18.6165880209368
 30
0.0
 11
-2.45495817295567
 21
-16.6165880209368
 31
0.0
  0
LINE
  5
85
330
1F
100
AcDbEntity
  8
0
  6
Continuous
 62
     7
100
AcDbLine
 10
-7.27616117295567
 20
-19.6165880209368
 30
0.0
 11
-3.45495817295567
 21
-19.6165880209368
 31
0.0
  0
LINE
  5
86
330
1F
100
AcDbEntity
  8
0
  6
Continuous
 62
     7
100
AcDbLine
 10
-8.45495817295567
 20
-16.6165880209368
 30
0.0
 11
-8.27235617295567
 21
-18.70374402093679
 31
0.0
  0
LINE
  5
87
330
1F
100
AcDbEntity
  8
0
  6
Continuous
 62
     7
100
AcDbLine
 10
-6.95495817295567
 20
-16.6165880209368
 30
0.0
 11
-8.45495817295567
 21
-16.6165880209368
 31
0.0
  0
LINE
  5
88
330
1F
100
AcDbEntity
  8
0
  6
Continuous
 62
     7
100
AcDbLine
 10
-10.95495817295567
 20
-15.1165880209368
 30
0.0
 11
-7.95495817295567
 21
-15.1165880209368
 31
0.0
  0
LINE
  5
89
330
1F
100
AcDbEntity
  8
0
  6
Continuous
 62
     7
100
AcDbLine
 10
-9.97733317295565
 20
-26.29090002093678
 30
0.0
 11
-10.95495817295567
 21
-15.1165880209368
 31
0.0
  0
LINE
  5
8A
330
1F
100
AcDbEntity
  8
0
  6
Continuous
 62
     7
100
AcDbLine
 10
-3.95495817295567
 20
-16.6165880209368
 30
0.0
 11
-3.95495817295567
 21
-16.1165880209368
 31
0.0
  0
LINE
  5
8B
330
1F
100
AcDbEntity
  8
0
  6
Continuous
 62
     7
100
AcDbLine
 10
-6.95495817295567
 20
-16.1165880209368
 30
0.0
 11
-6.95495817295567
 21
-16.6165880209368
 31
0.0
  0
LINE
  5
8C
330
1F
100
AcDbEntity
  8
0
  6
Continuous
 62
     7
100
AcDbLine
 10
9.04504182704433
 20
-6.81658802093678
 30
0.0
 11
9.04504182704433
 21
-15.1165880209368
 31
0.0
  0
LINE
  5
8D
330
1F
100
AcDbEntity
  8
0
  6
Continuous
 62
     7
100
AcDbLine
 10
-0.45495817295567
 20
-25.1165880209368
 30
0.0
 11
-0.45495817295567
 21
-17.6165880209368
 31
0.0
  0
LINE
  5
8E
330
1F
100
AcDbEntity
  8
0
  6
Continuous
 62
     7
100
AcDbLine
 10
-0.45495817295567
 20
-17.6165880209368
 30
0.0
 11
10.04504182704433
 21
-17.6165880209368
 31
0.0
  0
LINE
  5
8F
330
1F
100
AcDbEntity
  8
0
  6
Continuous
 62
     7
100
AcDbLine
 10
10.04504182704433
 20
-17.6165880209368
 30
0.0
 11
10.04504182704433
 21
-25.1165880209368
 31
0.0
  0
LINE
  5
90
330
1F
100
AcDbEntity
  8
0
  6
Continuous
 62
     7
100
AcDbLine
 10
10.04504182704433
 20
-25.1165880209368
 30
0.0
 11
-0.45495817295567
 21
-25.1165880209368
 31
0.0
  0
LINE
  5
91
330
1F
100
AcDbEntity
  8
0
  6
Continuous
 62
     7
100
AcDbLine
 10
11.74504182704435
 20
-12.81658802093678
 30
0.0
 11
13.49504182704435
 21
-12.81658802093678
 31
0.0
  0
LINE
  5
92
330
1F
100
AcDbEntity
  8
0
  6
Continuous
 62
     7
100
AcDbLine
 10
11.74504182704435
 20
-14.31658802093678
 30
0.0
 11
11.74504182704435
 21
-15.1165880209368
 31
0.0
  0
LINE
  5
93
330
1F
100
AcDbEntity
  8
0
  6
Continuous
 62
     7
100
AcDbLine
 10
11.54504182704433
 20
-25.1165880209368
 30
0.0
 11
25.09504182704431
 21
-25.1165880209368
 31
0.0
  0
LINE
  5
94
330
1F
100
AcDbEntity
  8
0
  6
Continuous
 62
     7
100
AcDbLine
 10
11.54504182704433
 20
-16.19362102093677
 30
0.0
 11
11.54504182704433
 21
-25.1165880209368
 31
0.0
  0
LINE
  5
95
330
1F
100
AcDbEntity
  8
0
  6
Continuous
 62
     7
100
AcDbLine
 10
32.29768971153261
 20
20.38341198020621
 30
0.0
 11
15.74504182704432
 21
20.3834119790632
 31
0.0
  0
LINE
  5
96
330
1F
100
AcDbEntity
  8
0
  6
Continuous
 62
     7
100
AcDbLine
 10
-3.95495817295567
 20
-25.1165880209368
 30
0.0
 11
-1.95495817295567
 21
-25.1165880209368
 31
0.0
  0
LINE
  5
97
330
1F
100
AcDbEntity
  8
0
  6
Continuous
 62
     7
100
AcDbLine
 10
26.59504182704431
 20
-23.3665880209368
 30
0.0
 11
26.59504182704431
 21
-25.1165880209368
 31
0.0
  0
LINE
  5
98
330
1F
100
AcDbEntity
  8
0
  6
Continuous
 62
     7
100
AcDbLine
 10
26.59504182704431
 20
-25.1165880209368
 30
0.0
 11
29.34504182704431
 21
-25.1165880209368
 31
0.0
  0
LINE
  5
99
330
1F
100
AcDbEntity
  8
0
  6
Continuous
 62
     7
100
AcDbLine
 10
25.09504182704431
 20
-23.3665880209368
 30
0.0
 11
25.09504182704431
 21
-25.1165880209368
 31
0.0
  0
LINE
  5
9A
330
1F
100
AcDbEntity
  8
0
  6
Continuous
 62
     7
100
AcDbLine
 10
11.74504182704435
 20
-14.31658802093678
 30
0.0
 11
13.49504182704435
 21
-14.31658802093678
 31
0.0
  0
LINE
  5
9B
330
1F
100
AcDbEntity
  8
0
  6
Continuous
 62
     7
100
AcDbLine
 10
-5.45495817295567
 20
-24.3665880209368
 30
0.0
 11
-5.45495817295567
 21
-25.1165880209368
 31
0.0
  0
LINE
  5
9C
330
1F
100
AcDbEntity
  8
0
  6
Continuous
 62
     7
100
AcDbLine
 10
-3.95495817295567
 20
-24.3665880209368
 30
0.0
 11
-3.95495817295567
 21
-25.1165880209368
 31
0.0
  0
LINE
  5
9D
330
1F
100
AcDbEntity
  8
0
  6
Continuous
 62
     7
100
AcDbLine
 10
-5.45495817295567
 20
-25.1165880209368
 30
0.0
 11
-7.06861217295567
 21
-25.1165880209368
 31
0.0
  0
LINE
  5
9E
330
1F
100
AcDbEntity
  8
0
  6
Continuous
 62
     7
100
AcDbLine
 10
15.74504182704432
 20
28.8834119790632
 30
0.0
 11
15.74504182704432
 21
20.3834119790632
 31
0.0
  0
LINE
  5
9F
330
1F
100
AcDbEntity
  8
0
  6
Continuous
 62
     7
100
AcDbLine
 10
11.74504182704435
 20
18.8834119790632
 30
0.0
 11
11.74504182704435
 21
12.08341197906319
 31
0.0
  0
LINE
  5
A0
330
1F
100
AcDbEntity
  8
0
  6
Continuous
 62
     7
100
AcDbLine
 10
22.04504182704432
 20
12.08341197906319
 30
0.0
 11
11.74504182704435
 21
12.08341197906319
 31
0.0
  0
LINE
  5
A1
330
1F
100
AcDbEntity
  8
0
  6
Continuous
 62
     7
100
AcDbLine
 10
11.74504182704435
 20
-9.51658802093677
 30
0.0
 11
22.04504182704432
 21
-9.51658802093677
 31
0.0
  0
LINE
  5
A2
330
1F
100
AcDbEntity
  8
0
  6
Continuous
 62
     7
100
AcDbLine
 10
11.74504182704435
 20
-9.51658802093677
 30
0.0
 11
11.74504182704435
 21
-12.81658802093678
 31
0.0
  0
LINE
  5
A3
330
1F
100
AcDbEntity
  8
0
  6
Continuous
 62
     7
100
AcDbLine
 10
29.34504182704431
 20
-25.1165880209368
 30
0.0
 11
29.34504182704431
 21
-18.81658802093678
 31
0.0
  0
LINE
  5
A4
330
1F
100
AcDbEntity
  8
0
  6
Continuous
 62
     7
100
AcDbLine
 10
33.34504182704431
 20
10.91405197906321
 30
0.0
 11
33.34504182673022
 21
-15.12877023799407
 31
0.0
  0
LINE
  5
A5
330
1F
100
AcDbEntity
  8
0
  6
Continuous
 62
     7
100
AcDbLine
 10
33.34504182704431
 20
10.91405197906321
 30
0.0
 11
31.65167482704432
 21
15.6241609790632
 31
0.0
  0
LINE
  5
A6
330
1F
100
AcDbEntity
  8
0
  6
Continuous
 62
     7
100
AcDbLine
 10
-43.25495817295568
 20
29.3834119790632
 30
0.0
 11
-43.25495817295568
 21
9.3834119790632
 31
0.0
  0
LINE
  5
A7
330
1F
100
AcDbEntity
  8
0
  6
Continuous
 62
     7
100
AcDbLine
 10
-42.75495817295568
 20
29.3834119790632
 30
0.0
 11
-43.25495817295568
 21
29.3834119790632
 31
0.0
  0
LINE
  5
A8
330
1F
100
AcDbEntity
  8
0
  6
Continuous
 62
     7
100
AcDbLine
 10
-42.75495817295568
 20
30.3834119790632
 30
0.0
 11
-43.25495817295568
 21
30.3834119790632
 31
0.0
  0
LINE
  5
A9
330
1F
100
AcDbEntity
  8
0
  6
Continuous
 62
     7
100
AcDbLine
 10
-43.25495817295568
 20
8.3834119790632
 30
0.0
 11
-43.25495817295568
 21
-0.6165880209368
 31
0.0
  0
LINE
  5
AA
330
1F
100
AcDbEntity
  8
0
  6
Continuous
 62
     7
100
AcDbLine
 10
-42.75495817295568
 20
9.3834119790632
 30
0.0
 11
-43.25495817295568
 21
9.3834119790632
 31
0.0
  0
LINE
  5
AB
330
1F
100
AcDbEntity
  8
0
  6
Continuous
 62
     7
100
AcDbLine
 10
-42.75495817295568
 20
8.3834119790632
 30
0.0
 11
-43.25495817295568
 21
8.3834119790632
 31
0.0
  0
LINE
  5
AC
330
1F
100
AcDbEntity
  8
0
  6
Continuous
 62
     7
100
AcDbLine
 10
-8.65495817295569
 20
27.41405297906321
 30
0.0
 11
-10.34832517295568
 21
32.12416097906321
 31
0.0
  0
LINE
  5
AD
330
1F
100
AcDbEntity
  8
0
  6
Continuous
 62
     7
100
AcDbLine
 10
-8.65495817295569
 20
27.41405297906321
 30
0.0
 11
-8.65495817295567
 21
16.38341197906321
 31
0.0
  0
LINE
  5
AE
330
1F
100
AcDbEntity
  8
0
  6
Continuous
 62
     7
100
AcDbLine
 10
-8.65495817326976
 20
1.37122976200591
 30
0.0
 11
-8.65495817295567
 21
10.38341197906321
 31
0.0
  0
LINE
  5
AF
330
1F
100
AcDbEntity
  8
0
  6
Continuous
 62
     7
100
AcDbLine
 10
-43.25495817295568
 20
-2.11658802093679
 30
0.0
 11
-43.25495817295568
 21
-8.61658802093679
 31
0.0
  0
LINE
  5
B0
330
1F
100
AcDbEntity
  8
0
  6
Continuous
 62
     7
100
AcDbLine
 10
-43.25495817295568
 20
35.3834119790632
 30
0.0
 11
-43.25495817295568
 21
30.3834119790632
 31
0.0
  0
LINE
  5
B1
330
1F
100
AcDbEntity
  8
0
  6
Continuous
 62
     7
100
AcDbLine
 10
-43.25495817295568
 20
45.3834119790632
 30
0.0
 11
-43.25495817295568
 21
36.8834119790632
 31
0.0
  0
LINE
  5
B2
330
1F
100
AcDbEntity
  8
0
  6
Continuous
 62
     7
100
AcDbLine
 10
-29.75495817295568
 20
2.6334119790632
 30
0.0
 11
-29.75495817295568
 21
-0.6165880209368
 31
0.0
  0
LINE
  5
B3
330
1F
100
AcDbEntity
  8
0
  6
Continuous
 62
     7
100
AcDbLine
 10
-8.65495817295567
 20
16.38341197906321
 30
0.0
 11
-10.00495817295567
 21
16.38341197906321
 31
0.0
  0
LINE
  5
B4
330
1F
100
AcDbEntity
  8
0
  6
Continuous
 62
     7
100
AcDbLine
 10
-10.00495817295567
 20
10.38341197906321
 30
0.0
 11
-8.65495817295567
 21
10.38341197906321
 31
0.0
  0
LINE
  5
B5
330
1F
100
AcDbEntity
  8
0
  6
Continuous
 62
     7
100
AcDbLine
 10
-52.95495817295569
 20
43.3834119790632
 30
0.0
 11
-52.45495817295569
 21
43.3834119790632
 31
0.0
  0
LINE
  5
B6
330
1F
100
AcDbEntity
  8
0
  6
Continuous
 62
     7
100
AcDbLine
 10
9.12057882704431
 20
41.8834119790632
 30
0.0
 11
9.04535282704431
 21
41.8834119790632
 31
0.0
  0
LINE
  5
B7
330
1F
100
AcDbEntity
  8
0
  6
Continuous
 62
     7
100
AcDbLine
 10
-8.65495817295567
 20
14.88341197906321
 30
0.0
 11
-10.00495817295567
 21
14.88341197906321
 31
0.0
  0
LINE
  5
B8
330
1F
100
AcDbEntity
  8
0
  6
Continuous
 62
     7
100
AcDbLine
 10
-10.00495817295567
 20
11.88341197906321
 30
0.0
 11
-8.65495817295567
 21
11.88341197906321
 31
0.0
  0
LINE
  5
B9
330
1F
100
AcDbEntity
  8
0
  6
Continuous
 62
     7
100
AcDbLine
 10
-8.65495817295567
 20
11.88341197906321
 30
0.0
 11
-8.65495817295567
 21
14.88341197906321
 31
0.0
  0
LINE
  5
BA
330
1F
100
AcDbEntity
  8
0
  6
Continuous
 62
     7
100
AcDbLine
 10
-46.69613917295568
 20
1.5146729790632
 30
0.0
 11
-50.32554865040441
 21
0.54217606591867
 31
0.0
  0
LINE
  5
BB
330
1F
100
AcDbEntity
  8
0
  6
Continuous
 62
     7
100
AcDbLine
 10
-50.95495817295569
 20
1.02513897906321
 30
0.0
 11
-50.95495817295569
 21
2.3834119790632
 31
0.0
  0
LINE
  5
BC
330
1F
100
AcDbEntity
  8
0
  6
Continuous
 62
     7
100
AcDbLine
 10
-50.95495817295569
 20
2.3834119790632
 30
0.0
 11
-52.95495817295569
 21
1.8475139790632
 31
0.0
  0
LINE
  5
BD
330
1F
100
AcDbEntity
  8
0
  6
Continuous
 62
     7
100
AcDbLine
 10
-52.95495817295569
 20
1.8475139790632
 30
0.0
 11
-52.95495817295569
 21
-2.61658802093679
 31
0.0
  0
LINE
  5
BE
330
1F
100
AcDbEntity
  8
0
  6
Continuous
 62
     7
100
AcDbLine
 10
-52.95495817295569
 20
-2.61658802093679
 30
0.0
 11
-52.45495817295569
 21
-2.61658802093679
 31
0.0
  0
LINE
  5
BF
330
1F
100
AcDbEntity
  8
0
  6
Continuous
 62
     7
100
AcDbLine
 10
-52.45495817295569
 20
-2.61658802093679
 30
0.0
 11
-47.21377721805821
 21
-1.21221819464773
 31
0.0
  0
LINE
  5
C0
330
1F
100
AcDbEntity
  8
0
  6
Continuous
 62
     7
100
AcDbLine
 10
-45.95495817295569
 20
-2.17814402093679
 30
0.0
 11
-45.95495817295569
 21
-7.61658802093679
 31
0.0
  0
LINE
  5
C1
330
1F
100
AcDbEntity
  8
0
  6
Continuous
 62
     7
100
AcDbLine
 10
-46.95495817295569
 20
-8.61658802093679
 30
0.0
 11
-49.95495817295569
 21
-8.61658802093679
 31
0.0
  0
LINE
  5
C2
330
1F
100
AcDbEntity
  8
0
  6
Continuous
 62
     7
100
AcDbLine
 10
-50.95495817295569
 20
-7.61658802093679
 30
0.0
 11
-50.95495817295569
 21
-7.01851202093679
 31
0.0
  0
LINE
  5
C3
330
1F
100
AcDbEntity
  8
0
  6
Continuous
 62
     7
100
AcDbLine
 10
-50.95495817295569
 20
-7.01851202093679
 30
0.0
 11
-52.45495817295569
 21
-6.61658802093679
 31
0.0
  0
LINE
  5
C4
330
1F
100
AcDbEntity
  8
0
  6
Continuous
 62
     7
100
AcDbLine
 10
-52.45495817295569
 20
-6.61658802093679
 30
0.0
 11
-52.95495817295569
 21
-6.61658802093679
 31
0.0
  0
LINE
  5
C5
330
1F
100
AcDbEntity
  8
0
  6
Continuous
 62
     7
100
AcDbLine
 10
-52.95495817295569
 20
-6.61658802093679
 30
0.0
 11
-52.95495817295569
 21
-11.61658802093679
 31
0.0
  0
LINE
  5
C6
330
1F
100
AcDbEntity
  8
0
  6
Continuous
 62
     7
100
AcDbLine
 10
-52.95495817295569
 20
-11.61658802093679
 30
0.0
 11
-3.95495817295567
 21
-11.61658802093679
 31
0.0
  0
LINE
  5
C7
330
1F
100
AcDbEntity
  8
0
  6
Continuous
 62
     7
100
AcDbLine
 10
-2.95495817295567
 20
1.38341197906321
 30
0.0
 11
-3.45495817295567
 21
1.38341197906321
 31
0.0
  0
LINE
  5
C8
330
1F
100
AcDbEntity
  8
0
  6
Continuous
 62
     7
100
AcDbLine
 10
-5.95495817295567
 20
1.18755997906321
 30
0.0
 11
-5.95495817295567
 21
12.95914797906322
 31
0.0
  0
LINE
  5
C9
330
1F
100
AcDbEntity
  8
0
  6
Continuous
 62
     7
100
AcDbLine
 10
-5.95495817295567
 20
12.95914797906322
 30
0.0
 11
-6.16709020731163
 21
13.17127994470725
 31
0.0
  0
LINE
  5
CA
330
1F
100
AcDbEntity
  8
0
  6
Continuous
 62
     7
100
AcDbLine
 10
-6.16709020731163
 20
13.59554401341917
 30
0.0
 11
-5.95495817295567
 21
13.8076759790632
 31
0.0
  0
LINE
  5
CB
330
1F
100
AcDbEntity
  8
0
  6
Continuous
 62
     7
100
AcDbLine
 10
-1.95495817295569
 20
35.3834119790632
 30
0.0
 11
9.64535282704432
 21
35.3834119790632
 31
0.0
  0
LINE
  5
CC
330
1F
100
AcDbEntity
  8
0
  6
Continuous
 62
     7
100
AcDbLine
 10
10.14535282704432
 20
35.8834119790632
 30
0.0
 11
10.14535282704432
 21
36.8834119790632
 31
0.0
  0
LINE
  5
CD
330
1F
100
AcDbEntity
  8
0
  6
Continuous
 62
     7
100
AcDbLine
 10
10.14535282704432
 20
36.8834119790632
 30
0.0
 11
8.54535282704431
 21
36.8834119790632
 31
0.0
  0
LINE
  5
CE
330
1F
100
AcDbEntity
  8
0
  6
Continuous
 62
     7
100
AcDbLine
 10
8.54535282704431
 20
36.8834119790632
 30
0.0
 11
8.54535282704431
 21
39.3834119790632
 31
0.0
  0
LINE
  5
CF
330
1F
100
AcDbEntity
  8
0
  6
Continuous
 62
     7
100
AcDbLine
 10
9.04535282704431
 20
39.8834119790632
 30
0.0
 11
13.35784182704431
 21
39.8834119790632
 31
0.0
  0
LINE
  5
D0
330
1F
100
AcDbEntity
  8
0
  6
Continuous
 62
     7
100
AcDbLine
 10
13.84080474018884
 20
39.51282150161448
 30
0.0
 11
14.54535282704431
 21
36.8834119790632
 31
0.0
  0
LINE
  5
D1
330
1F
100
AcDbEntity
  8
0
  6
Continuous
 62
     7
100
AcDbLine
 10
14.54535282704431
 20
36.8834119790632
 30
0.0
 11
12.94535282704432
 21
36.8834119790632
 31
0.0
  0
LINE
  5
D2
330
1F
100
AcDbEntity
  8
0
  6
Continuous
 62
     7
100
AcDbLine
 10
12.94535282704432
 20
36.8834119790632
 30
0.0
 11
12.94535282704432
 21
35.8834119790632
 31
0.0
  0
LINE
  5
D3
330
1F
100
AcDbEntity
  8
0
  6
Continuous
 62
     7
100
AcDbLine
 10
13.44535282704432
 20
35.3834119790632
 30
0.0
 11
14.99243882704433
 21
35.3834119790632
 31
0.0
  0
LINE
  5
D4
330
1F
100
AcDbEntity
  8
0
  6
Continuous
 62
     7
100
AcDbLine
 10
15.95836465333342
 20
34.64223102416573
 30
0.0
 11
16.00857282704432
 21
34.45485297906321
 31
0.0
  0
LINE
  5
D5
330
1F
100
AcDbEntity
  8
0
  6
Continuous
 62
     7
100
AcDbLine
 10
16.00857282704432
 20
34.45485297906321
 30
0.0
 11
16.06238982704431
 21
34.25400197906321
 31
0.0
  0
LINE
  5
D6
330
1F
100
AcDbEntity
  8
0
  6
Continuous
 62
     7
100
AcDbLine
 10
17.02831574018882
 20
34.51282150161448
 30
0.0
 11
16.79504182704432
 21
35.3834119790632
 31
0.0
  0
LINE
  5
D7
330
1F
100
AcDbEntity
  8
0
  6
Continuous
 62
     7
100
AcDbLine
 10
16.79504182704432
 20
35.3834119790632
 30
0.0
 11
13.70889982704432
 21
46.90104997906321
 31
0.0
  0
LINE
  5
D8
330
1F
100
AcDbEntity
  8
0
  6
Continuous
 62
     7
100
AcDbLine
 10
11.77704882704431
 20
48.3834119790632
 30
0.0
 11
-52.95495817295569
 21
48.3834119790632
 31
0.0
  0
LINE
  5
D9
330
1F
100
AcDbEntity
  8
0
  6
Continuous
 62
     7
100
AcDbLine
 10
-52.95495817295569
 20
48.3834119790632
 30
0.0
 11
-52.95495817295569
 21
43.3834119790632
 31
0.0
  0
LINE
  5
DA
330
1F
100
AcDbEntity
  8
0
  6
Continuous
 62
     7
100
AcDbLine
 10
-52.95495817295569
 20
43.3834119790632
 30
0.0
 11
-52.45495817295569
 21
43.3834119790632
 31
0.0
  0
LINE
  5
DB
330
1F
100
AcDbEntity
  8
0
  6
Continuous
 62
     7
100
AcDbLine
 10
-52.45495817295569
 20
43.3834119790632
 30
0.0
 11
-50.95495817295569
 21
43.78533597906321
 31
0.0
  0
LINE
  5
DC
330
1F
100
AcDbEntity
  8
0
  6
Continuous
 62
     7
100
AcDbLine
 10
-50.95495817295569
 20
43.78533597906321
 30
0.0
 11
-50.95495817295569
 21
44.3834119790632
 31
0.0
  0
LINE
  5
DD
330
1F
100
AcDbEntity
  8
0
  6
Continuous
 62
     7
100
AcDbLine
 10
-49.95495817295569
 20
45.3834119790632
 30
0.0
 11
-46.95495817295569
 21
45.3834119790632
 31
0.0
  0
LINE
  5
DE
330
1F
100
AcDbEntity
  8
0
  6
Continuous
 62
     7
100
AcDbLine
 10
-45.95495817295569
 20
44.3834119790632
 30
0.0
 11
-45.95495817295569
 21
38.94496797906322
 31
0.0
  0
LINE
  5
DF
330
1F
100
AcDbEntity
  8
0
  6
Continuous
 62
     7
100
AcDbLine
 10
-47.21377717295568
 20
37.9790419790632
 30
0.0
 11
-52.45495817295569
 21
39.3834119790632
 31
0.0
  0
LINE
  5
E0
330
1F
100
AcDbEntity
  8
0
  6
Continuous
 62
     7
100
AcDbLine
 10
-52.45495817295569
 20
39.3834119790632
 30
0.0
 11
-52.95495817295569
 21
39.3834119790632
 31
0.0
  0
LINE
  5
E1
330
1F
100
AcDbEntity
  8
0
  6
Continuous
 62
     7
100
AcDbLine
 10
-52.95495817295569
 20
39.3834119790632
 30
0.0
 11
-52.95495817295569
 21
34.91930997906321
 31
0.0
  0
LINE
  5
E2
330
1F
100
AcDbEntity
  8
0
  6
Continuous
 62
     7
100
AcDbLine
 10
-52.95495817295569
 20
34.91930997906321
 30
0.0
 11
-50.95495817295569
 21
34.3834119790632
 31
0.0
  0
LINE
  5
E3
330
1F
100
AcDbEntity
  8
0
  6
Continuous
 62
     7
100
AcDbLine
 10
-50.95495817295569
 20
34.3834119790632
 30
0.0
 11
-50.95495817295569
 21
35.7416849790632
 31
0.0
  0
LINE
  5
E4
330
1F
100
AcDbEntity
  8
0
  6
Continuous
 62
     7
100
AcDbLine
 10
-50.32554865040441
 20
36.22464789220773
 30
0.0
 11
-46.69613912785317
 21
35.25215080535228
 31
0.0
  0
LINE
  5
E5
330
1F
100
AcDbEntity
  8
0
  6
Continuous
 62
     7
100
AcDbLine
 10
-45.95495817295569
 20
34.28622497906321
 30
0.0
 11
-45.95495817295569
 21
33.3245039790632
 31
0.0
  0
LINE
  5
E6
330
1F
100
AcDbEntity
  8
0
  6
Continuous
 62
     7
100
AcDbLine
 10
-45.95495817295569
 20
33.3245039790632
 30
0.0
 11
-45.95495817295569
 21
13.8076759790632
 31
0.0
  0
LINE
  5
E7
330
1F
100
AcDbEntity
  8
0
  6
Continuous
 62
     7
100
AcDbLine
 10
-45.95495817295569
 20
13.8076759790632
 30
0.0
 11
-45.74282617295568
 21
13.5955439790632
 31
0.0
  0
LINE
  5
E8
330
1F
100
AcDbEntity
  8
0
  6
Continuous
 62
     7
100
AcDbLine
 10
-45.74282617295568
 20
13.17127997906321
 30
0.0
 11
-45.95495817295569
 21
12.95914797906321
 31
0.0
  0
LINE
  5
E9
330
1F
100
AcDbEntity
  8
0
  6
Continuous
 62
     7
100
AcDbLine
 10
-45.95495817295569
 20
12.95914797906321
 30
0.0
 11
-45.95495817295569
 21
2.48059897906321
 31
0.0
  0
LINE
  5
EA
330
1F
100
AcDbEntity
  8
0
  6
Continuous
 62
     7
100
AcDbLine
 10
6.54535282704431
 20
39.3834119790632
 30
0.0
 11
6.54535282704431
 21
37.8834119790632
 31
0.0
  0
LINE
  5
EB
330
1F
100
AcDbEntity
  8
0
  6
Continuous
 62
     7
100
AcDbLine
 10
11.00972182704432
 20
45.3834119790632
 30
0.0
 11
11.94754382704431
 21
41.8834119790632
 31
0.0
  0
LINE
  5
EC
330
1F
100
AcDbEntity
  8
0
  6
Continuous
 62
     7
100
AcDbLine
 10
11.94754382704431
 20
41.8834119790632
 30
0.0
 11
9.04535282704431
 21
41.8834119790632
 31
0.0
  0
LINE
  5
ED
330
1F
100
AcDbEntity
  8
0
  6
Continuous
 62
     7
100
AcDbLine
 10
-24.05299817295568
 20
36.8834119790632
 30
0.0
 11
-24.94638417295568
 21
45.3834119790632
 31
0.0
  0
LINE
  5
EE
330
1F
100
AcDbEntity
  8
0
  6
Continuous
 62
     7
100
AcDbLine
 10
-26.45464717295567
 20
45.3834119790632
 30
0.0
 11
-43.25495817295568
 21
45.3834119790632
 31
0.0
  0
LINE
  5
EF
330
1F
100
AcDbEntity
  8
0
  6
Continuous
 62
     7
100
AcDbLine
 10
-43.25495817295568
 20
36.8834119790632
 30
0.0
 11
-25.56126117295568
 21
36.8834119790632
 31
0.0
  0
LINE
  5
F0
330
1F
100
AcDbEntity
  8
0
  6
Continuous
 62
     7
100
AcDbLine
 10
-25.56126117295568
 20
36.8834119790632
 30
0.0
 11
-26.45464717295567
 21
45.3834119790632
 31
0.0
  0
LINE
  5
F1
330
1F
100
AcDbEntity
  8
0
  6
Continuous
 62
     7
100
AcDbLine
 10
-43.25495817295568
 20
-8.61658802093679
 30
0.0
 11
-27.95495817295569
 21
-8.61658802093679
 31
0.0
  0
LINE
  5
F2
330
1F
100
AcDbEntity
  8
0
  6
Continuous
 62
     7
100
AcDbLine
 10
-27.95495817295569
 20
-8.61658802093679
 30
0.0
 11
-27.95495817295569
 21
-2.11658802093679
 31
0.0
  0
LINE
  5
F3
330
1F
100
AcDbEntity
  8
0
  6
Continuous
 62
     7
100
AcDbLine
 10
-26.45495817295569
 20
-2.11658802093679
 30
0.0
 11
-26.45495817295569
 21
-8.61658802093679
 31
0.0
  0
LINE
  5
F4
330
1F
100
AcDbEntity
  8
0
  6
Continuous
 62
     7
100
AcDbLine
 10
-26.45495817295569
 20
-8.61658802093679
 30
0.0
 11
-12.65495817295567
 21
-8.61658802093679
 31
0.0
  0
LINE
  5
F5
330
1F
100
AcDbEntity
  8
0
  6
Continuous
 62
     7
100
AcDbLine
 10
-12.65495817295567
 20
-8.61658802093679
 30
0.0
 11
-12.65495817295567
 21
-6.61658802093679
 31
0.0
  0
LINE
  5
F6
330
1F
100
AcDbEntity
  8
0
  6
Continuous
 62
     7
100
AcDbLine
 10
-24.05299817295568
 20
36.8834119790632
 30
0.0
 11
-9.70231028846742
 21
36.88341198020621
 31
0.0
  0
LINE
  5
F7
330
1F
100
AcDbEntity
  8
0
  6
Continuous
 62
     7
100
AcDbLine
 10
-10.43391417295568
 20
35.3834119790632
 30
0.0
 11
-43.25495817295568
 21
35.3834119790632
 31
0.0
  0
LINE
  5
F8
330
1F
100
AcDbEntity
  8
0
  6
Continuous
 62
     7
100
AcDbLine
 10
-5.81378817295568
 20
39.24720197906321
 30
0.0
 11
-6.45872917295569
 21
45.3834119790632
 31
0.0
  0
LINE
  5
F9
330
1F
100
AcDbEntity
  8
0
  6
Continuous
 62
     7
100
AcDbLine
 10
-7.270443420389
 20
38.75619489197364
 30
0.0
 11
-7.96699217295568
 21
45.3834119790632
 31
0.0
  0
LINE
  5
FA
330
1F
100
AcDbEntity
  8
0
  6
Continuous
 62
     7
100
AcDbLine
 10
-5.95495817295568
 20
27.88465597906321
 30
0.0
 11
-7.80753817295569
 21
33.03761797906321
 31
0.0
  0
LINE
  5
FB
330
1F
100
AcDbEntity
  8
0
  6
Continuous
 62
     7
100
AcDbLine
 10
-1.95495817295569
 20
35.3834119790632
 30
0.0
 11
-4.58875627684652
 21
36.22855467731782
 31
0.0
  0
LINE
  5
FC
330
1F
100
AcDbEntity
  8
0
  6
Continuous
 62
     7
100
AcDbLine
 10
-6.45872917295569
 20
45.3834119790632
 30
0.0
 11
11.00972182704432
 21
45.3834119790632
 31
0.0
  0
LINE
  5
FD
330
1F
100
AcDbEntity
  8
0
  6
Continuous
 62
     7
100
AcDbLine
 10
-13.90495817295567
 20
-5.11658802093679
 30
0.0
 11
-12.65495817295567
 21
-5.11658802093679
 31
0.0
  0
LINE
  5
FE
330
1F
100
AcDbEntity
  8
0
  6
Continuous
 62
     7
100
AcDbLine
 10
-12.65495817295567
 20
-6.61658802093679
 30
0.0
 11
-13.90495817295567
 21
-6.61658802093679
 31
0.0
  0
LINE
  5
FF
330
1F
100
AcDbEntity
  8
0
  6
Continuous
 62
     7
100
AcDbLine
 10
-12.24129351529047
 20
-0.61658801572465
 30
0.0
 11
-28.25495817295568
 21
-0.6165880209368
 31
0.0
  0
LINE
  5
100
330
1F
100
AcDbEntity
  8
0
  6
Continuous
 62
     7
100
AcDbLine
 10
-43.25495817295568
 20
-2.11658802093679
 30
0.0
 11
-27.95495817295569
 21
-2.11658802093679
 31
0.0
  0
LINE
  5
101
330
1F
100
AcDbEntity
  8
0
  6
Continuous
 62
     7
100
AcDbLine
 10
-3.45495817295567
 20
1.38341197906321
 30
0.0
 11
-5.28394810129284
 21
0.71771366867026
 31
0.0
  0
LINE
  5
102
330
1F
100
AcDbEntity
  8
0
  6
Continuous
 62
     7
100
AcDbLine
 10
-2.95495817295567
 20
1.38341197906321
 30
0.0
 11
-3.45495817295567
 21
1.38341197906321
 31
0.0
  0
LINE
  5
103
330
1F
100
AcDbEntity
  8
0
  6
Continuous
 62
     7
100
AcDbLine
 10
-2.95495817295567
 20
-2.61658802093679
 30
0.0
 11
-2.95495817295567
 21
1.38341197906321
 31
0.0
  0
LINE
  5
104
330
1F
100
AcDbEntity
  8
0
  6
Continuous
 62
     7
100
AcDbLine
 10
-3.45495817295567
 20
-2.61658802093679
 30
0.0
 11
-2.95495817295567
 21
-2.61658802093679
 31
0.0
  0
LINE
  5
105
330
1F
100
AcDbEntity
  8
0
  6
Continuous
 62
     7
100
AcDbLine
 10
-8.30662417295567
 20
-1.31658802093679
 30
0.0
 11
-3.45495817295567
 21
-2.61658802093679
 31
0.0
  0
LINE
  5
106
330
1F
100
AcDbEntity
  8
0
  6
Continuous
 62
     7
100
AcDbLine
 10
-9.95495817295567
 20
-7.61658802093679
 30
0.0
 11
-9.95495817295567
 21
-2.3165880209368
 31
0.0
  0
LINE
  5
107
330
1F
100
AcDbEntity
  8
0
  6
Continuous
 62
     7
100
AcDbLine
 10
-5.95495817295567
 20
-8.61658802093679
 30
0.0
 11
-8.95495817295567
 21
-8.61658802093679
 31
0.0
  0
LINE
  5
108
330
1F
100
AcDbEntity
  8
0
  6
Continuous
 62
     7
100
AcDbLine
 10
-4.95495817295567
 20
-7.01851202093679
 30
0.0
 11
-4.95495817295567
 21
-7.61658802093679
 31
0.0
  0
LINE
  5
109
330
1F
100
AcDbEntity
  8
0
  6
Continuous
 62
     7
100
AcDbLine
 10
-3.45495817295567
 20
-6.61658802093679
 30
0.0
 11
-4.95495817295567
 21
-7.01851202093679
 31
0.0
  0
LINE
  5
10A
330
1F
100
AcDbEntity
  8
0
  6
Continuous
 62
     7
100
AcDbLine
 10
-2.95495817295567
 20
-6.61658802093679
 30
0.0
 11
-3.45495817295567
 21
-6.61658802093679
 31
0.0
  0
LINE
  5
10B
330
1F
100
AcDbEntity
  8
0
  6
Continuous
 62
     7
100
AcDbLine
 10
-2.95495817295567
 20
-10.61658802093679
 30
0.0
 11
-2.95495817295567
 21
-6.61658802093679
 31
0.0
  0
LINE
  5
10C
330
1F
100
AcDbEntity
  8
0
  6
Continuous
 62
     7
100
AcDbLine
 10
-8.30662417295567
 20
-1.31658802093679
 30
0.0
 11
-8.95495817295567
 21
-1.31658802093679
 31
0.0
  0
LINE
  5
10D
330
1F
100
AcDbEntity
  8
0
  6
Continuous
 62
     7
100
AcDbLine
 10
-12.65495817295567
 20
-2.11658802093679
 30
0.0
 11
-12.65495817295567
 21
-5.11658802093679
 31
0.0
  0
LINE
  5
10E
330
1F
100
AcDbEntity
  8
0
  6
Continuous
 62
     7
100
AcDbLine
 10
-26.45495817295569
 20
-2.11658802093679
 30
0.0
 11
-12.65495817295567
 21
-2.11658802093679
 31
0.0
  0
LINE
  5
10F
330
1F
100
AcDbEntity
  8
0
  6
Continuous
 62
     7
100
AcDbLine
 10
-28.25495817295568
 20
2.6334119790632
 30
0.0
 11
-28.25495817295568
 21
-0.6165880209368
 31
0.0
  0
LINE
  5
110
330
1F
100
AcDbEntity
  8
0
  6
Continuous
 62
     7
100
AcDbLine
 10
-29.75495817295568
 20
-0.6165880209368
 30
0.0
 11
-43.25495817295568
 21
-0.6165880209368
 31
0.0
  0
LINE
  5
111
330
1F
100
AcDbEntity
  8
0
  6
Continuous
 62
     7
100
AcDbLine
 10
-5.95495817295568
 20
27.88465597906321
 30
0.0
 11
-5.95495817295567
 21
13.8076759790632
 31
0.0
  0
LINE
  5
112
330
1F
100
AcDbEntity
  8
0
  6
Continuous
 62
     7
100
AcDbLine
 10
-7.96699217295568
 20
45.3834119790632
 30
0.0
 11
-24.94638417295568
 21
45.3834119790632
 31
0.0
  0
LINE
  5
113
330
1F
100
AcDbEntity
  8
0
  6
Continuous
 62
     7
100
AcDbLine
 10
6.54535282704431
 20
37.8834119790632
 30
0.0
 11
-1.56367917295569
 21
37.8834119790632
 31
0.0
  0
LINE
  5
114
330
1F
100
AcDbEntity
  8
0
  6
Continuous
 62
     7
100
AcDbLine
 10
-1.56367917295569
 20
37.8834119790632
 30
0.0
 11
-5.81378817295568
 21
39.24720197906321
 31
0.0
  0
LINE
  5
115
330
1F
100
AcDbEntity
  8
1
  6
DASHED
 62
     2
100
AcDbLine
 10
-12.17289848691074
 20
-24.14289079279281
 30
0.0
 11
-12.5650993292752
 21
-19.66001465137996
 31
0.0
  0
LINE
  5
116
330
1F
100
AcDbEntity
  8
1
  6
Continuous
 62
     7
100
AcDbLine
 10
-14.73180021095401
 20
-17.84193674069178
 30
0.0
 11
-14.71001127526709
 21
-18.09098541521472
 31
0.0
  0
LINE
  5
117
330
1F
100
AcDbEntity
  8
1
  6
DASHED
 62
     2
100
AcDbLine
 10
-12.5650993292752
 20
-19.66001465137996
 30
0.0
 11
-14.73180021095401
 21
-17.84193674069178
 31
0.0
  0
LINE
  5
118
330
1F
100
AcDbEntity
  8
1
  6
DASHED
 62
     2
100
AcDbLine
 10
-10.57270993309172
 20
-19.48570316588464
 30
0.0
 11
-12.5650993292752
 21
-19.66001465137996
 31
0.0
  0
LINE
  5
119
330
1F
100
AcDbEntity
  8
1
  6
Continuous
 62
     7
100
AcDbLine
 10
-13.99097639759891
 20
-26.30959167447162
 30
0.0
 11
-13.92560959053817
 21
-27.05673769804043
 31
0.0
  0
LINE
  5
11A
330
1F
100
AcDbEntity
  8
1
  6
DASHED
 62
     2
100
AcDbLine
 10
-12.17289848691074
 20
-24.14289079279281
 30
0.0
 11
-13.99097639759891
 21
-26.30959167447162
 31
0.0
  0
LINE
  5
11B
330
1F
100
AcDbEntity
  8
1
  6
DASHED
 62
     2
100
AcDbLine
 10
-10.18050909072726
 20
-23.9685793072975
 30
0.0
 11
-12.17289848691074
 21
-24.14289079279281
 31
0.0
  0
LINE
  5
11C
330
1F
100
AcDbEntity
  8
1
  6
Continuous
 62
     7
100
AcDbLine
 10
-15.05927942291436
 20
-25.57254546558779
 30
0.0
 11
-15.73702073592591
 21
-25.25650950108248
 31
0.0
  0
LINE
  5
11D
330
1F
100
AcDbEntity
  8
1
  6
Continuous
 62
     7
100
AcDbLine
 10
-15.65588658182206
 20
-18.75329443507093
 30
0.0
 11
-16.26845241209895
 21
-19.1822176470805
 31
0.0
  0
LINE
  5
11E
330
1F
100
AcDbEntity
  8
1
  6
Continuous
 62
     7
100
AcDbLine
 10
-14.01276533328583
 20
-26.06054299994868
 30
0.0
 11
-13.99097639759891
 21
-26.30959167447162
 31
0.0
  0
LINE
  5
11F
330
1F
100
AcDbEntity
  8
1
  6
Continuous
 62
     7
100
AcDbLine
 10
-15.05927942291436
 20
-25.57254546558779
 30
0.0
 11
-14.01276533328583
 21
-26.06054299994868
 31
0.0
  0
LINE
  5
120
330
1F
100
AcDbEntity
  8
1
  6
Continuous
 62
     7
100
AcDbLine
 10
-15.65588658182206
 20
-18.75329443507093
 30
0.0
 11
-15.05927942291436
 21
-25.57254546558779
 31
0.0
  0
LINE
  5
121
330
1F
100
AcDbEntity
  8
1
  6
Continuous
 62
     7
100
AcDbLine
 10
-14.71001127526709
 20
-18.09098541521472
 30
0.0
 11
-14.01276533328583
 21
-26.06054299994868
 31
0.0
  0
LINE
  5
122
330
1F
100
AcDbEntity
  8
1
  6
Continuous
 62
     7
100
AcDbLine
 10
-14.71001127526709
 20
-18.09098541521472
 30
0.0
 11
-15.65588658182206
 21
-18.75329443507093
 31
0.0
  0
LINE
  5
123
330
1F
100
AcDbEntity
  8
1
  6
Continuous
 62
     7
100
AcDbLine
 10
-14.79716701801476
 20
-17.09479071712297
 30
0.0
 11
-14.73180021095401
 21
-17.84193674069178
 31
0.0
  0
LINE
  5
124
330
1F
100
AcDbEntity
  8
1
  6
Continuous
 62
     7
100
AcDbLine
 10
-10.81238822564777
 20
-16.74616774613234
 30
0.0
 11
-14.79716701801476
 21
-17.09479071712297
 31
0.0
  0
LINE
  5
125
330
1F
100
AcDbEntity
  8
1
  6
Continuous
 62
     7
100
AcDbLine
 10
-13.92560959053817
 20
-27.05673769804043
 30
0.0
 11
-9.94083079817119
 21
-26.7081147270498
 31
0.0
  0
LINE
  5
126
330
1F
100
AcDbEntity
  8
1
  6
DASHED
 62
     2
100
AcDbLine
 10
-19.9290432380563
 20
-12.5077206709346
 30
0.0
 11
-25.72904323805631
 21
-12.5077206709346
 31
0.0
  0
LINE
  5
127
330
1F
100
AcDbEntity
  8
1
  6
Continuous
 62
     7
100
AcDbLine
 10
-15.3290432380563
 20
-14.11658802093679
 30
0.0
 11
-30.3290432380563
 21
-14.11658802093679
 31
0.0
  0
LINE
  5
128
330
1F
100
AcDbEntity
  8
1
  6
DASHED
 62
     2
100
AcDbLine
 10
-25.72904323805631
 20
-12.5077206709346
 30
0.0
 11
-27.0790432380563
 21
-14.11658802093679
 31
0.0
  0
LINE
  5
129
330
1F
100
AcDbEntity
  8
1
  6
DASHED
 62
     2
100
AcDbLine
 10
-25.72904323805631
 20
-11.61658802093679
 30
0.0
 11
-25.72904323805631
 21
-12.5077206709346
 31
0.0
  0
LINE
  5
12A
330
1F
100
AcDbEntity
  8
1
  6
DASHED
 62
     2
100
AcDbLine
 10
-19.9290432380563
 20
-12.5077206709346
 30
0.0
 11
-18.5790432380563
 21
-14.11658802093679
 31
0.0
  0
LINE
  5
12B
330
1F
100
AcDbEntity
  8
1
  6
DASHED
 62
     2
100
AcDbLine
 10
-19.9290432380563
 20
-11.61658802093679
 30
0.0
 11
-19.9290432380563
 21
-12.5077206709346
 31
0.0
  0
LINE
  5
12C
330
1F
100
AcDbEntity
  8
1
  6
DOT_CENTER
 62
     2
100
AcDbLine
 10
-22.8290432380563
 20
12.12055837235561
 30
0.0
 11
-22.8290432380563
 21
-22.8165880209368
 31
0.0
  0
LINE
  5
12D
330
1F
100
AcDbEntity
  8
1
  6
Continuous
 62
     7
100
AcDbLine
 10
-16.8290432380563
 20
-14.11658802093679
 30
0.0
 11
-18.37019597263867
 21
-16.78594285945716
 31
0.0
  0
LINE
  5
12E
330
1F
100
AcDbEntity
  8
1
  6
Continuous
 62
     7
100
AcDbLine
 10
-28.13622291502875
 20
-15.3165880209368
 30
0.0
 11
-17.52186356108385
 21
-15.3165880209368
 31
0.0
  0
LINE
  5
12F
330
1F
100
AcDbEntity
  8
1
  6
Continuous
 62
     7
100
AcDbLine
 10
-28.8290432380563
 20
-14.11658802093679
 30
0.0
 11
-27.28789050347393
 21
-16.78594285945716
 31
0.0
  0
LINE
  5
130
330
1F
100
AcDbEntity
  8
1
  6
Continuous
 62
     7
100
AcDbLine
 10
-15.3290432380563
 20
-14.11658802093679
 30
0.0
 11
-15.3290432380563
 21
-11.61658802093679
 31
0.0
  0
LINE
  5
131
330
1F
100
AcDbEntity
  8
1
  6
Continuous
 62
     7
100
AcDbLine
 10
-30.3290432380563
 20
-11.61658802093679
 30
0.0
 11
-30.3290432380563
 21
-14.11658802093679
 31
0.0
  0
LINE
  5
132
330
1F
100
AcDbEntity
  8
1
  6
DOT_CENTER
 62
     2
100
AcDbLine
 10
-34.03623359158843
 20
-23.79709012684795
 30
0.0
 11
-22.8290432380563
 21
-22.8165880209368
 31
0.0
  0
LINE
  5
133
330
1F
100
AcDbEntity
  8
1
  6
DOT_CENTER
 62
     2
100
AcDbLine
 10
-22.8290432380563
 20
-22.8165880209368
 30
0.0
 11
-22.8290432380563
 21
-34.06658802093679
 31
0.0
  0
LINE
  5
134
330
1F
100
AcDbEntity
  8
1
  6
DOT_CENTER
 62
     2
100
AcDbLine
 10
-22.8290432380563
 20
-22.8165880209368
 30
0.0
 11
-16.6463546935743
 21
-22.27567286318302
 31
0.0
  0
LINE
  5
135
330
1F
100
AcDbEntity
  8
1
  6
DOT_CENTER
 62
     2
100
AcDbLine
 10
-33.33820502694779
 20
-22.8165880209368
 30
0.0
 11
-14.28447500325132
 21
-22.8165880209368
 31
0.0
  0
LINE
  5
136
330
1F
100
AcDbEntity
  8
1
  6
DOT_CENTER
 62
     2
100
AcDbLine
 10
-16.6463546935743
 20
-22.27567286318302
 30
0.0
 11
16.02254998752181
 21
-19.41751405377813
 31
0.0
  0
LINE
  5
137
102
{ACAD_REACTORS
330
19F
330
19F
102
}
330
1F
100
AcDbEntity
  8
1
  6
Continuous
 62
     7
100
AcDbLine
 10
-40.25495817295568
 20
4.8834119790632
 30
0.0
 11
-12.75495817295567
 21
4.8834119790632
 31
0.0
  0
LINE
  5
138
102
{ACAD_REACTORS
330
19F
330
19F
102
}
330
1F
100
AcDbEntity
  8
1
  6
Continuous
 62
     7
100
AcDbLine
 10
-12.25495817295567
 20
5.3834119790632
 30
0.0
 11
-12.25495817295567
 21
32.3834119790632
 31
0.0
  0
LINE
  5
139
102
{ACAD_REACTORS
330
19F
330
19F
102
}
330
1F
100
AcDbEntity
  8
1
  6
Continuous
 62
     7
100
AcDbLine
 10
-12.75495817295567
 20
32.8834119790632
 30
0.0
 11
-40.25495817295568
 21
32.8834119790632
 31
0.0
  0
LINE
  5
13A
102
{ACAD_REACTORS
330
19F
330
19F
102
}
330
1F
100
AcDbEntity
  8
1
  6
Continuous
 62
     7
100
AcDbLine
 10
-40.75495817295568
 20
32.3834119790632
 30
0.0
 11
-40.75495817295568
 21
5.3834119790632
 31
0.0
  0
LINE
  5
13B
102
{ACAD_REACTORS
330
19F
330
19F
102
}
330
1F
100
AcDbEntity
  8
1
  6
Continuous
 62
     7
100
AcDbLine
 10
-40.25495817295568
 20
34.3834119790632
 30
0.0
 11
-12.75495817295567
 21
34.3834119790632
 31
0.0
  0
LINE
  5
13C
102
{ACAD_REACTORS
330
19F
330
19F
102
}
330
1F
100
AcDbEntity
  8
1
  6
Continuous
 62
     7
100
AcDbLine
 10
-10.75495817295567
 20
32.3834119790632
 30
0.0
 11
-10.75495817295567
 21
5.3834119790632
 31
0.0
  0
LINE
  5
13D
102
{ACAD_REACTORS
330
19F
330
19F
102
}
330
1F
100
AcDbEntity
  8
1
  6
Continuous
 62
     7
100
AcDbLine
 10
-12.75495817295567
 20
3.3834119790632
 30
0.0
 11
-40.25495817295568
 21
3.3834119790632
 31
0.0
  0
LINE
  5
13E
102
{ACAD_REACTORS
330
19F
330
19F
102
}
330
1F
100
AcDbEntity
  8
1
  6
Continuous
 62
     7
100
AcDbLine
 10
-42.25495817295568
 20
5.3834119790632
 30
0.0
 11
-42.25495817295568
 21
32.3834119790632
 31
0.0
  0
LINE
  5
13F
102
{ACAD_REACTORS
330
1A0
330
1A0
102
}
330
1F
100
AcDbEntity
  8
1
  6
Continuous
 62
     7
100
AcDbLine
 10
12.24504182704435
 20
18.3834119790632
 30
0.0
 11
12.24504182704435
 21
16.8834119790632
 31
0.0
  0
LINE
  5
140
102
{ACAD_REACTORS
330
1A0
330
1A0
102
}
330
1F
100
AcDbEntity
  8
1
  6
Continuous
 62
     7
100
AcDbLine
 10
12.24504182704435
 20
16.8834119790632
 30
0.0
 11
28.84504137726646
 21
16.8834119790632
 31
0.0
  0
LINE
  5
141
102
{ACAD_REACTORS
330
1A0
330
1A0
102
}
330
1F
100
AcDbEntity
  8
1
  6
Continuous
 62
     7
100
AcDbLine
 10
29.34504137726646
 20
16.3834119790632
 30
0.0
 11
29.34504137726646
 21
-12.68603253654917
 31
0.0
  0
LINE
  5
142
102
{ACAD_REACTORS
330
1A0
330
1A0
102
}
330
1F
100
AcDbEntity
  8
1
  6
Continuous
 62
     7
100
AcDbLine
 10
29.27747387047968
 20
-12.9370348050915
 30
0.0
 11
23.51335578595426
 21
-22.86759028947913
 31
0.0
  0
LINE
  5
143
102
{ACAD_REACTORS
330
1A0
330
1A0
102
}
330
1F
100
AcDbEntity
  8
1
  6
Continuous
 62
     7
100
AcDbLine
 10
23.08092329274104
 20
-23.1165880209368
 30
0.0
 11
18.0
 21
-23.1165880209368
 31
0.0
  0
LINE
  5
144
102
{ACAD_REACTORS
330
1A0
330
1A0
102
}
330
1F
100
AcDbEntity
  8
1
  6
Continuous
 62
     7
100
AcDbLine
 10
18.0
 20
-23.1165880209368
 30
0.0
 11
18.0
 21
-24.6165880209368
 31
0.0
  0
LINE
  5
145
102
{ACAD_REACTORS
330
1A0
330
1A0
102
}
330
1F
100
AcDbEntity
  8
1
  6
Continuous
 62
     7
100
AcDbLine
 10
18.0
 20
-24.6165880209368
 30
0.0
 11
23.09248579111587
 21
-24.6165880209368
 31
0.0
  0
LINE
  5
146
102
{ACAD_REACTORS
330
1A0
330
1A0
102
}
330
1F
100
AcDbEntity
  8
1
  6
Continuous
 62
     7
100
AcDbLine
 10
24.82221576396876
 20
-23.62059709510611
 30
0.0
 11
30.57477135011935
 21
-13.70996174940503
 31
0.0
  0
LINE
  5
147
102
{ACAD_REACTORS
330
1A0
330
1A0
102
}
330
1F
100
AcDbEntity
  8
1
  6
Continuous
 62
     7
100
AcDbLine
 10
30.84504137726646
 20
-12.70595267523572
 30
0.0
 11
30.84504137726646
 21
16.3834119790632
 31
0.0
  0
LINE
  5
148
102
{ACAD_REACTORS
330
1A0
330
1A0
102
}
330
1F
100
AcDbEntity
  8
1
  6
Continuous
 62
     7
100
AcDbLine
 10
28.84504137726646
 20
18.3834119790632
 30
0.0
 11
12.24504182704435
 21
18.3834119790632
 31
0.0
  0
ARC
  5
149
330
1F
100
AcDbEntity
  8
0
  6
Continuous
 62
     7
100
AcDbCircle
 10
51.06504182704431
 20
22.8834119790632
 30
0.0
 40
2.5
100
AcDbArc
 50
90.0
 51
180.0
  0
ARC
  5
14A
330
1F
100
AcDbEntity
  8
0
  6
Continuous
 62
     7
100
AcDbCircle
 10
58.56504170204436
 20
17.88341194556958
 30
0.0
 40
0.5000000780594737
100
AcDbArc
 50
-164.9999497286639
 51
14.9999395844046
  0
ARC
  5
14B
330
1F
100
AcDbEntity
  8
0
  6
Continuous
 62
     7
100
AcDbCircle
 10
57.01212682704433
 20
17.8834119790632
 30
0.0
 40
1.000000000000032
100
AcDbArc
 50
15.00000000000114
 51
90.0
  0
ARC
  5
14C
330
1F
100
AcDbEntity
  8
0
  6
Continuous
 62
     7
100
AcDbCircle
 10
54.99386682704433
 20
22.3834119790632
 30
0.0
 40
1.000000000000032
100
AcDbArc
 50
15.00000000000114
 51
90.0
  0
ARC
  5
14D
330
1F
100
AcDbEntity
  8
0
  6
Continuous
 62
     7
100
AcDbCircle
 10
51.56504182704431
 20
22.3834119790632
 30
0.0
 40
1.0
100
AcDbArc
 50
90.0
 51
180.0
  0
ARC
  5
14E
330
1F
100
AcDbEntity
  8
0
  6
Continuous
 62
     7
100
AcDbCircle
 10
56.06504182704431
 20
19.8834119790632
 30
0.0
 40
1.0
100
AcDbArc
 50
180.0
 51
-90.0
  0
ARC
  5
14F
330
1F
100
AcDbEntity
  8
0
  6
Continuous
 62
     7
100
AcDbCircle
 10
51.06504182704431
 20
19.8834119790632
 30
0.0
 40
1.0
100
AcDbArc
 50
-90.0
 51
0.0
  0
ARC
  5
150
330
1F
100
AcDbEntity
  8
0
  6
Continuous
 62
     7
100
AcDbCircle
 10
36.54504182704432
 20
-15.3124400209368
 30
0.0
 40
0.5
100
AcDbArc
 50
180.0
 51
-69.99999999999254
  0
ARC
  5
151
330
1F
100
AcDbEntity
  8
0
  6
Continuous
 62
     7
100
AcDbCircle
 10
33.04504182704432
 20
-18.81658802093678
 30
0.0
 40
1.0
100
AcDbArc
 50
90.0
 51
180.0
  0
ARC
  5
152
330
1F
100
AcDbEntity
  8
0
  6
Continuous
 62
     7
100
AcDbCircle
 10
33.04504182704432
 20
-24.1165880209368
 30
0.0
 40
1.0
100
AcDbArc
 50
180.0
 51
-90.0
  0
ARC
  5
153
330
1F
100
AcDbEntity
  8
0
  6
Continuous
 62
     7
100
AcDbCircle
 10
36.04504182704432
 20
-24.1165880209368
 30
0.0
 40
1.0
100
AcDbArc
 50
-90.0
 51
0.0
  0
ARC
  5
154
330
1F
100
AcDbEntity
  8
0
  6
Continuous
 62
     7
100
AcDbCircle
 10
38.04504182704432
 20
-27.1165880209368
 30
0.0
 40
1.0
100
AcDbArc
 50
-90.0
 51
0.00000000000061
  0
ARC
  5
155
330
1F
100
AcDbEntity
  8
0
  6
Continuous
 62
     7
100
AcDbCircle
 10
36.54504181554061
 20
17.38341196765901
 30
0.0
 40
2.500000014683619
100
AcDbArc
 50
69.72778684324257
 51
-160.2255941204523
  0
ARC
  5
156
330
1F
100
AcDbEntity
  8
0
  6
Continuous
 62
     7
100
AcDbCircle
 10
53.79673682704431
 20
29.8834119790632
 30
0.0
 40
2.000000000000082
100
AcDbArc
 50
14.99999999999984
 51
90.0
  0
ARC
  5
157
330
1F
100
AcDbEntity
  8
0
  6
Continuous
 62
     7
100
AcDbCircle
 10
9.54504164669074
 20
21.88341182701257
 30
0.0
 40
0.4999998196464336
100
AcDbArc
 50
80.2664567127003
 51
179.9999825762752
  0
ARC
  5
158
330
1F
100
AcDbEntity
  8
0
  6
Continuous
 62
     7
100
AcDbCircle
 10
12.54504182704433
 20
22.3834119790632
 30
0.0
 40
0.499999999999996
100
AcDbArc
 50
-99.73351099999816
 51
0.0
  0
ARC
  5
159
330
1F
100
AcDbEntity
  8
0
  6
Continuous
 62
     7
100
AcDbCircle
 10
12.54504200739793
 20
28.88341182701256
 30
0.0
 40
0.4999998196464209
100
AcDbArc
 50
0.00001742372603
 51
99.73354328729769
  0
ARC
  5
15A
330
1F
100
AcDbEntity
  8
0
  6
Continuous
 62
     7
100
AcDbCircle
 10
9.54504182704433
 20
29.3834119790632
 30
0.0
 40
0.5
100
AcDbArc
 50
180.0
 51
-80.26648899999823
  0
ARC
  5
15B
330
1F
100
AcDbEntity
  8
0
  6
Continuous
 62
     7
100
AcDbCircle
 10
22.04504182704432
 20
1.28341194470723
 30
0.0
 40
0.2999999757066781
100
AcDbArc
 50
-44.99999536030723
 51
45.00000463969172
  0
ARC
  5
15C
330
1F
100
AcDbEntity
  8
0
  6
Continuous
 62
     7
100
AcDbCircle
 10
36.04504182704432
 20
-4.61658805529272
 30
0.0
 40
0.2999999757066368
100
AcDbArc
 50
134.999995360321
 51
-135.0000046396767
  0
ARC
  5
15D
330
1F
100
AcDbEntity
  8
0
  6
Continuous
 62
     7
100
AcDbCircle
 10
-2.95495817295567
 20
-16.1165880209368
 30
0.0
 40
0.9999999999999982
100
AcDbArc
 50
90.0
 51
180.0
  0
ARC
  5
15E
330
1F
100
AcDbEntity
  8
0
  6
Continuous
 62
     7
100
AcDbCircle
 10
-7.95495817295567
 20
-16.1165880209368
 30
0.0
 40
1.0
100
AcDbArc
 50
0.0
 51
90.0
  0
ARC
  5
15F
330
1F
100
AcDbEntity
  8
0
  6
Continuous
 62
     7
100
AcDbCircle
 10
-7.27616134930052
 20
-18.61658785934661
 30
0.0
 40
1.000000161590208
100
AcDbArc
 50
-174.9999767204345
 51
-89.99998989618575
  0
ARC
  5
160
330
1F
100
AcDbEntity
  8
0
  6
Continuous
 62
     7
100
AcDbCircle
 10
-3.45495817295567
 20
-18.6165880209368
 30
0.0
 40
1.0
100
AcDbArc
 50
-90.0
 51
0.0
  0
ARC
  5
161
330
1F
100
AcDbEntity
  8
0
  6
Continuous
 62
     7
100
AcDbCircle
 10
-7.98494352564536
 20
-26.11658769775642
 30
0.0
 40
2.000000323180416
100
AcDbArc
 50
-174.9999767204347
 51
-89.99998989618578
  0
ARC
  5
162
330
1F
100
AcDbEntity
  8
0
  6
Continuous
 62
     7
100
AcDbCircle
 10
8.74504182012028
 20
-15.11658805822405
 30
0.0
 40
3.000000006924072
100
AcDbArc
 50
-21.03946975676199
 51
0.00000071213396
  0
ARC
  5
163
330
1F
100
AcDbEntity
  8
0
  6
Continuous
 62
     7
100
AcDbCircle
 10
25.84504182704431
 20
-23.3665880209368
 30
0.0
 40
0.75
100
AcDbArc
 50
0.0
 51
180.0
  0
ARC
  5
164
330
1F
100
AcDbEntity
  8
0
  6
Continuous
 62
     7
100
AcDbCircle
 10
13.49504182704435
 20
-13.56658802093678
 30
0.0
 40
0.75
100
AcDbArc
 50
-90.0
 51
90.0
  0
ARC
  5
165
330
1F
100
AcDbEntity
  8
0
  6
Continuous
 62
     7
100
AcDbCircle
 10
-4.70495817295567
 20
-24.3665880209368
 30
0.0
 40
0.7499999999999996
100
AcDbArc
 50
0.0
 51
180.0
  0
ARC
  5
166
330
1F
100
AcDbEntity
  8
0
  6
Continuous
 62
     7
100
AcDbCircle
 10
22.04504182704432
 20
9.3834119790632
 30
0.0
 40
2.700000000000003
100
AcDbArc
 50
0.0
 51
90.0
  0
ARC
  5
167
330
1F
100
AcDbEntity
  8
0
  6
Continuous
 62
     7
100
AcDbCircle
 10
22.04504182704432
 20
-6.81658802093678
 30
0.0
 40
2.699999999999989
100
AcDbArc
 50
-90.0
 51
0.0
  0
ARC
  5
168
330
1F
100
AcDbEntity
  8
0
  6
Continuous
 62
     7
100
AcDbCircle
 10
33.04504182704432
 20
-18.81658802093678
 30
0.0
 40
3.700000000000004
100
AcDbArc
 50
85.34929100000028
 51
180.0
  0
ARC
  5
169
330
1F
100
AcDbEntity
  8
0
  6
Continuous
 62
     7
100
AcDbCircle
 10
36.54504156375658
 20
17.3834117692949
 30
0.0
 40
5.199999905967138
100
AcDbArc
 50
112.3249368289809
 51
144.7655784384588
  0
ARC
  5
16A
330
1F
100
AcDbEntity
  8
0
  6
Continuous
 62
     7
100
AcDbCircle
 10
36.54504183440251
 20
17.38341169886164
 30
0.0
 40
5.200000361905082
100
AcDbArc
 50
163.2341250042265
 51
-160.2256045247972
  0
ARC
  5
16B
330
1F
100
AcDbEntity
  8
0
  6
Continuous
 62
     7
100
AcDbCircle
 10
-42.75495817295568
 20
29.8834119790632
 30
0.0
 40
0.5
100
AcDbArc
 50
-90.0
 51
90.0
  0
ARC
  5
16C
330
1F
100
AcDbEntity
  8
0
  6
Continuous
 62
     7
100
AcDbCircle
 10
-42.75495817295568
 20
8.8834119790632
 30
0.0
 40
0.5
100
AcDbArc
 50
-90.0
 51
90.0
  0
ARC
  5
16D
330
1F
100
AcDbEntity
  8
0
  6
Continuous
 62
     7
100
AcDbCircle
 10
-5.4549581655975
 20
33.88341169886164
 30
0.0
 40
5.200000361905068
100
AcDbArc
 50
163.2341250042265
 51
-160.2256045247973
  0
ARC
  5
16E
330
1F
100
AcDbEntity
  8
0
  6
Continuous
 62
     7
100
AcDbCircle
 10
-5.45495817295568
 20
33.8834119790632
 30
0.0
 40
5.2
100
AcDbArc
 50
110.4342199999999
 51
144.7655819999999
  0
ARC
  5
16F
330
1F
100
AcDbEntity
  8
0
  6
Continuous
 62
     7
100
AcDbCircle
 10
-8.95495817295567
 20
-2.3165880209368
 30
0.0
 40
3.700000000000002
100
AcDbArc
 50
85.34929100000005
 51
152.647767
  0
ARC
  5
170
330
1F
100
AcDbEntity
  8
0
  6
Continuous
 62
     7
100
AcDbCircle
 10
-29.00495817295568
 20
2.6334119790632
 30
0.0
 40
0.75
100
AcDbArc
 50
0.0
 51
180.0
  0
ARC
  5
171
330
1F
100
AcDbEntity
  8
0
  6
Continuous
 62
     7
100
AcDbCircle
 10
-13.90495817295567
 20
-5.86658802093679
 30
0.0
 40
0.75
100
AcDbArc
 50
90.0
 51
-90.0
  0
ARC
  5
172
330
1F
100
AcDbEntity
  8
0
  6
Continuous
 62
     7
100
AcDbCircle
 10
-10.00495817295567
 20
11.13341197906321
 30
0.0
 40
0.75
100
AcDbArc
 50
90.0
 51
-90.0
  0
ARC
  5
173
330
1F
100
AcDbEntity
  8
0
  6
Continuous
 62
     7
100
AcDbCircle
 10
-10.00495817295567
 20
15.63341197906321
 30
0.0
 40
0.7500000000000018
100
AcDbArc
 50
90.0
 51
-90.0
  0
ARC
  5
174
330
1F
100
AcDbEntity
  8
0
  6
Continuous
 62
     7
100
AcDbCircle
 10
-46.95495825101494
 20
2.48059887733441
 30
0.0
 40
1.000000078059245
100
AcDbArc
 50
-74.99999924350043
 51
0.00000582863021
  0
ARC
  5
175
330
1F
100
AcDbEntity
  8
0
  6
Continuous
 62
     7
100
AcDbCircle
 10
-50.45495817295569
 20
1.02513897906321
 30
0.0
 40
0.5
100
AcDbArc
 50
180.0
 51
-74.99999999999748
  0
ARC
  5
176
330
1F
100
AcDbEntity
  8
0
  6
Continuous
 62
     7
100
AcDbCircle
 10
-46.95495817295569
 20
-2.17814402093679
 30
0.0
 40
1.0
100
AcDbArc
 50
0.0
 51
105.0000000000001
  0
ARC
  5
177
330
1F
100
AcDbEntity
  8
0
  6
Continuous
 62
     7
100
AcDbCircle
 10
-46.95495817295569
 20
-7.61658802093679
 30
0.0
 40
1.0
100
AcDbArc
 50
-90.0
 51
0.0
  0
ARC
  5
178
330
1F
100
AcDbEntity
  8
0
  6
Continuous
 62
     7
100
AcDbCircle
 10
-49.95495817295569
 20
-7.61658802093679
 30
0.0
 40
1.0
100
AcDbArc
 50
180.0
 51
-90.0
  0
ARC
  5
179
330
1F
100
AcDbEntity
  8
0
  6
Continuous
 62
     7
100
AcDbCircle
 10
-5.45495817295567
 20
1.18755997906321
 30
0.0
 40
0.5
100
AcDbArc
 50
180.0
 51
-69.99999999999962
  0
ARC
  5
17A
330
1F
100
AcDbEntity
  8
0
  6
Continuous
 62
     7
100
AcDbCircle
 10
-5.95495817295567
 20
13.38341197906321
 30
0.0
 40
0.2999999999999944
100
AcDbArc
 50
135.0
 51
-135.0
  0
ARC
  5
17B
330
1F
100
AcDbEntity
  8
0
  6
Continuous
 62
     7
100
AcDbCircle
 10
9.64535282704432
 20
35.8834119790632
 30
0.0
 40
0.5
100
AcDbArc
 50
-90.0
 51
0.0
  0
ARC
  5
17C
330
1F
100
AcDbEntity
  8
0
  6
Continuous
 62
     7
100
AcDbCircle
 10
9.04535282704431
 20
39.3834119790632
 30
0.0
 40
0.5
100
AcDbArc
 50
90.0
 51
180.0
  0
ARC
  5
17D
330
1F
100
AcDbEntity
  8
0
  6
Continuous
 62
     7
100
AcDbCircle
 10
13.35784182704431
 20
39.3834119790632
 30
0.0
 40
0.5000000000000034
100
AcDbArc
 50
15.00000000000279
 51
90.0
  0
ARC
  5
17E
330
1F
100
AcDbEntity
  8
0
  6
Continuous
 62
     7
100
AcDbCircle
 10
13.44535282704432
 20
35.8834119790632
 30
0.0
 40
0.5
100
AcDbArc
 50
180.0
 51
-90.0
  0
ARC
  5
17F
330
1F
100
AcDbEntity
  8
0
  6
Continuous
 62
     7
100
AcDbCircle
 10
14.99243882704433
 20
34.3834119790632
 30
0.0
 40
1.000000000000025
100
AcDbArc
 50
15.0000000000004
 51
90.0
  0
ARC
  5
180
330
1F
100
AcDbEntity
  8
0
  6
Continuous
 62
     7
100
AcDbCircle
 10
16.5453527268445
 20
34.38341195221469
 30
0.0
 40
0.500000103734467
100
AcDbArc
 50
-164.999949728675
 51
15.00000000000855
  0
ARC
  5
181
330
1F
100
AcDbEntity
  8
0
  6
Continuous
 62
     7
100
AcDbCircle
 10
11.77704840109242
 20
46.3834123059077
 30
0.0
 40
1.999999673155533
100
AcDbArc
 50
14.99999013986077
 51
89.99998779737521
  0
ARC
  5
182
330
1F
100
AcDbEntity
  8
0
  6
Continuous
 62
     7
100
AcDbCircle
 10
-49.95495817295569
 20
44.3834119790632
 30
0.0
 40
1.0
100
AcDbArc
 50
90.0
 51
180.0
  0
ARC
  5
183
330
1F
100
AcDbEntity
  8
0
  6
Continuous
 62
     7
100
AcDbCircle
 10
-46.95495817295569
 20
44.3834119790632
 30
0.0
 40
1.0
100
AcDbArc
 50
0.0
 51
90.0
  0
ARC
  5
184
330
1F
100
AcDbEntity
  8
0
  6
Continuous
 62
     7
100
AcDbCircle
 10
-46.95495825101494
 20
38.94496791916624
 30
0.0
 40
1.000000078059252
100
AcDbArc
 50
-104.9999914960252
 51
0.00000343184408
  0
ARC
  5
185
330
1F
100
AcDbEntity
  8
0
  6
Continuous
 62
     7
100
AcDbCircle
 10
-50.45495817295569
 20
35.7416849790632
 30
0.0
 40
0.4999999999999983
100
AcDbArc
 50
74.99999999999706
 51
180.0
  0
ARC
  5
186
330
1F
100
AcDbEntity
  8
0
  6
Continuous
 62
     7
100
AcDbCircle
 10
-46.95495817295569
 20
34.28622497906321
 30
0.0
 40
1.0
100
AcDbArc
 50
0.0
 51
75.00000000000001
  0
ARC
  5
187
330
1F
100
AcDbEntity
  8
0
  6
Continuous
 62
     7
100
AcDbCircle
 10
-45.95495817295569
 20
13.3834119790632
 30
0.0
 40
0.29999995141333
100
AcDbArc
 50
-44.99999999999712
 51
44.99999999999856
  0
ARC
  5
188
330
1F
100
AcDbEntity
  8
0
  6
Continuous
 62
     7
100
AcDbCircle
 10
9.04535282704431
 20
39.3834119790632
 30
0.0
 40
2.5
100
AcDbArc
 50
90.0
 51
180.0
  0
ARC
  5
189
330
1F
100
AcDbEntity
  8
0
  6
Continuous
 62
     7
100
AcDbCircle
 10
-5.45495818445939
 20
33.88341196765901
 30
0.0
 40
2.500000014683605
100
AcDbArc
 50
69.72778684324341
 51
-160.2255941204527
  0
ARC
  5
18A
330
1F
100
AcDbEntity
  8
0
  6
Continuous
 62
     7
100
AcDbCircle
 10
-5.45495817295567
 20
1.18755997906321
 30
0.0
 40
0.5
100
AcDbArc
 50
180.0
 51
-69.99999999999962
  0
ARC
  5
18B
330
1F
100
AcDbEntity
  8
0
  6
Continuous
 62
     7
100
AcDbCircle
 10
-8.95495817295567
 20
-2.3165880209368
 30
0.0
 40
1.000000000000007
100
AcDbArc
 50
90.0
 51
180.0
  0
ARC
  5
18C
330
1F
100
AcDbEntity
  8
0
  6
Continuous
 62
     7
100
AcDbCircle
 10
-8.95495817295567
 20
-7.61658802093679
 30
0.0
 40
1.0
100
AcDbArc
 50
180.0
 51
-90.0
  0
ARC
  5
18D
330
1F
100
AcDbEntity
  8
0
  6
Continuous
 62
     7
100
AcDbCircle
 10
-5.95495817295567
 20
-7.61658802093679
 30
0.0
 40
1.0
100
AcDbArc
 50
-90.0
 51
0.0
  0
ARC
  5
18E
330
1F
100
AcDbEntity
  8
0
  6
Continuous
 62
     7
100
AcDbCircle
 10
-3.95495817295567
 20
-10.61658802093679
 30
0.0
 40
1.0
100
AcDbArc
 50
-90.0
 51
0.0
  0
ARC
  5
18F
330
1F
100
AcDbEntity
  8
1
  6
Continuous
 62
     7
100
AcDbCircle
 10
-22.8290432380563
 20
-22.8165880209368
 30
0.0
 40
7.499999999999999
100
AcDbArc
 50
-23.98513674960152
 51
23.98513674960157
  0
ARC
  5
190
330
1F
100
AcDbEntity
  8
1
  6
Continuous
 62
     7
100
AcDbCircle
 10
-22.8290432380563
 20
-22.8165880209368
 30
0.0
 40
7.500000000000003
100
AcDbArc
 50
23.98513674960157
 51
-23.98513674960152
  0
ARC
  5
191
102
{ACAD_REACTORS
330
19F
330
19F
102
}
330
1F
100
AcDbEntity
  8
1
  6
Continuous
 62
     7
100
AcDbCircle
 10
-40.25495817295568
 20
32.3834119790632
 30
0.0
 40
0.5
100
AcDbArc
 50
90.0
 51
180.0
  0
ARC
  5
192
102
{ACAD_REACTORS
330
19F
330
19F
102
}
330
1F
100
AcDbEntity
  8
1
  6
Continuous
 62
     7
100
AcDbCircle
 10
-40.25495817295568
 20
5.3834119790632
 30
0.0
 40
0.5
100
AcDbArc
 50
180.0
 51
-90.0
  0
ARC
  5
193
102
{ACAD_REACTORS
330
19F
330
19F
102
}
330
1F
100
AcDbEntity
  8
1
  6
Continuous
 62
     7
100
AcDbCircle
 10
-12.75495817295567
 20
5.3834119790632
 30
0.0
 40
0.5
100
AcDbArc
 50
-90.0
 51
0.0
  0
ARC
  5
194
102
{ACAD_REACTORS
330
19F
330
19F
102
}
330
1F
100
AcDbEntity
  8
1
  6
Continuous
 62
     7
100
AcDbCircle
 10
-12.75495817295567
 20
32.3834119790632
 30
0.0
 40
0.5
100
AcDbArc
 50
0.0
 51
90.0
  0
ARC
  5
195
102
{ACAD_REACTORS
330
19F
330
19F
102
}
330
1F
100
AcDbEntity
  8
1
  6
Continuous
 62
     7
100
AcDbCircle
 10
-40.25495817295568
 20
32.3834119790632
 30
0.0
 40
2.0
100
AcDbArc
 50
90.0
 51
180.0
  0
ARC
  5
196
102
{ACAD_REACTORS
330
19F
330
19F
102
}
330
1F
100
AcDbEntity
  8
1
  6
Continuous
 62
     7
100
AcDbCircle
 10
-12.75495817295567
 20
32.3834119790632
 30
0.0
 40
2.0
100
AcDbArc
 50
0.0
 51
90.0
  0
ARC
  5
197
102
{ACAD_REACTORS
330
19F
330
19F
102
}
330
1F
100
AcDbEntity
  8
1
  6
Continuous
 62
     7
100
AcDbCircle
 10
-12.75495817295567
 20
5.3834119790632
 30
0.0
 40
2.0
100
AcDbArc
 50
-90.0
 51
0.0
  0
ARC
  5
198
102
{ACAD_REACTORS
330
19F
330
19F
102
}
330
1F
100
AcDbEntity
  8
1
  6
Continuous
 62
     7
100
AcDbCircle
 10
-40.25495817295568
 20
5.3834119790632
 30
0.0
 40
2.0
100
AcDbArc
 50
180.0
 51
-90.0
  0
ARC
  5
199
102
{ACAD_REACTORS
330
1A0
330
1A0
102
}
330
1F
100
AcDbEntity
  8
1
  6
Continuous
 62
     7
100
AcDbCircle
 10
28.84504137726646
 20
16.3834119790632
 30
0.0
 40
0.5
100
AcDbArc
 50
0.0
 51
90.0
  0
ARC
  5
19A
102
{ACAD_REACTORS
330
1A0
330
1A0
102
}
330
1F
100
AcDbEntity
  8
1
  6
Continuous
 62
     7
100
AcDbCircle
 10
28.84504137726646
 20
-12.68603253654917
 30
0.0
 40
0.5000000000000002
100
AcDbArc
 50
-30.13270795670509
 51
0.0
  0
ARC
  5
19B
102
{ACAD_REACTORS
330
1A0
330
1A0
102
}
330
1F
100
AcDbEntity
  8
1
  6
Continuous
 62
     7
100
AcDbCircle
 10
23.08092329274104
 20
-22.6165880209368
 30
0.0
 40
0.5
100
AcDbArc
 50
-90.0
 51
-30.1327079567053
  0
ARC
  5
19C
102
{ACAD_REACTORS
330
1A0
330
1A0
102
}
330
1F
100
AcDbEntity
  8
1
  6
Continuous
 62
     7
100
AcDbCircle
 10
23.09248579111587
 20
-22.6165880209368
 30
0.0
 40
2.0
100
AcDbArc
 50
-90.0
 51
-30.13270795670497
  0
ARC
  5
19D
102
{ACAD_REACTORS
330
1A0
330
1A0
102
}
330
1F
100
AcDbEntity
  8
1
  6
Continuous
 62
     7
100
AcDbCircle
 10
28.84504137726646
 20
-12.70595267523572
 30
0.0
 40
1.999999999999994
100
AcDbArc
 50
-30.13270795670497
 51
0.0
  0
ARC
  5
19E
102
{ACAD_REACTORS
330
1A0
330
1A0
102
}
330
1F
100
AcDbEntity
  8
1
  6
Continuous
 62
     7
100
AcDbCircle
 10
28.84504137726646
 20
16.3834119790632
 30
0.0
 40
2.0
100
AcDbArc
 50
0.0
 51
90.0
  0
HATCH
  5
19F
330
1F
100
AcDbEntity
  8
1
  6
Continuous
 62
     3
100
AcDbHatch
 10
0.0
 20
0.0
 30
0.0
210
0.0
220
0.0
230
1.0
  2
SOLID
 70
     1
 71
     1
 91
        2
 92
        1
 93
        8
 72
     2
 10
-12.75495817295567
 20
32.3834119790632
 40
2.0
 50
0.0
 51
90.0
 73
     1
 72
     1
 10
-12.75495817295567
 20
34.3834119790632
 11
-40.25495817295568
 21
34.3834119790632
 72
     2
 10
-40.25495817295568
 20
32.3834119790632
 40
2.0
 50
90.0
 51
180.0
 73
     1
 72
     1
 10
-42.25495817295568
 20
32.3834119790632
 11
-42.25495817295568
 21
5.383411979063197
 72
     2
 10
-40.25495817295568
 20
5.383411979063197
 40
2.0
 50
180.0
 51
270.0
 73
     1
 72
     1
 10
-40.25495817295568
 20
3.383411979063197
 11
-12.75495817295567
 21
3.383411979063197
 72
     2
 10
-12.75495817295567
 20
5.383411979063197
 40
2.0
 50
270.0
 51
360.0
 73
     1
 72
     1
 10
-10.75495817295567
 20
5.383411979063197
 11
-10.75495817295567
 21
32.3834119790632
 97
        8
330
196
330
13B
330
195
330
13E
330
198
330
13D
330
197
330
13C
 92
       16
 93
        8
 72
     2
 10
-40.25495817295568
 20
32.3834119790632
 40
0.5
 50
90.0
 51
180.0
 73
     1
 72
     1
 10
-40.75495817295568
 20
32.3834119790632
 11
-40.75495817295568
 21
5.383411979063197
 72
     2
 10
-40.25495817295568
 20
5.383411979063197
 40
0.5
 50
180.0
 51
270.0
 73
     1
 72
     1
 10
-40.25495817295568
 20
4.883411979063197
 11
-12.75495817295567
 21
4.883411979063197
 72
     2
 10
-12.75495817295567
 20
5.383411979063197
 40
0.5
 50
270.0
 51
360.0
 73
     1
 72
     1
 10
-12.25495817295567
 20
5.383411979063197
 11
-12.25495817295567
 21
32.3834119790632
 72
     2
 10
-12.75495817295567
 20
32.3834119790632
 40
0.5
 50
0.0
 51
90.0
 73
     1
 72
     1
 10
-12.75495817295567
 20
32.8834119790632
 11
-40.25495817295568
 21
32.8834119790632
 97
        8
330
191
330
13A
330
192
330
137
330
193
330
138
330
194
330
139
 75
     0
 76
     1
 98
        1
 10
0.0
 20
0.0
  0
HATCH
  5
1A0
330
1F
100
AcDbEntity
  8
1
  6
Continuous
 62
     3
100
AcDbHatch
 10
0.0
 20
0.0
 30
0.0
210
0.0
220
0.0
230
1.0
  2
SOLID
 70
     1
 71
     1
 91
        1
 92
        1
 93
       16
 72
     2
 10
28.84504137726646
 20
16.3834119790632
 40
2.0
 50
0.0
 51
90.0
 73
     1
 72
     1
 10
28.84504137726646
 20
18.3834119790632
 11
12.24504182704435
 21
18.3834119790632
 72
     1
 10
12.24504182704435
 20
18.3834119790632
 11
12.24504182704435
 21
16.8834119790632
 72
     1
 10
12.24504182704435
 20
16.8834119790632
 11
28.84504137726646
 21
16.8834119790632
 72
     2
 10
28.84504137726646
 20
16.3834119790632
 40
0.5
 50
270.0
 51
360.0
 73
     0
 72
     1
 10
29.34504137726646
 20
16.3834119790632
 11
29.34504137726646
 21
-12.68603253654917
 72
     2
 10
28.84504137726646
 20
-12.68603253654917
 40
0.5000000000000002
 50
0.0
 51
30.13270795670509
 73
     0
 72
     1
 10
29.27747387047968
 20
-12.9370348050915
 11
23.51335578595426
 21
-22.86759028947913
 72
     2
 10
23.08092329274104
 20
-22.6165880209368
 40
0.5
 50
30.1327079567053
 51
90.0
 73
     0
 72
     1
 10
23.08092329274104
 20
-23.1165880209368
 11
18.0
 21
-23.1165880209368
 72
     1
 10
18.0
 20
-23.1165880209368
 11
18.0
 21
-24.6165880209368
 72
     1
 10
18.0
 20
-24.6165880209368
 11
23.09248579111587
 21
-24.6165880209368
 72
     2
 10
23.09248579111587
 20
-22.6165880209368
 40
2.0
 50
270.0
 51
329.867292043295
 73
     1
 72
     1
 10
24.82221576396876
 20
-23.62059709510611
 11
30.57477135011935
 21
-13.70996174940503
 72
     2
 10
28.84504137726646
 20
-12.70595267523572
 40
1.999999999999994
 50
329.867292043295
 51
360.0
 73
     1
 72
     1
 10
30.84504137726646
 20
-12.70595267523572
 11
30.84504137726646
 21
16.3834119790632
 97
       16
330
19E
330
148
330
13F
330
140
330
199
330
141
330
19A
330
142
330
19B
330
143
330
144
330
145
330
19C
330
146
330
19D
330
147
 75
     0
 76
     1
 98
        1
 10
0.0
 20
0.0
  0
ENDSEC
  0
SECTION
  2
OBJECTS
  0
DICTIONARY
  5
C
330
0
100
AcDbDictionary
281
     1
  3
ACAD_GROUP
350
D
  3
ACAD_LAYOUT
350
1A
  3
ACAD_MLINESTYLE
350
17
  3
ACAD_PLOTSETTINGS
350
19
  3
ACAD_PLOTSTYLENAME
350
E
  0
DICTIONARY
  5
D
102
{ACAD_REACTORS
330
C
102
}
330
C
100
AcDbDictionary
281
     1
  0
DICTIONARY
  5
1A
102
{ACAD_REACTORS
330
C
102
}
330
C
100
AcDbDictionary
281
     1
  3
Layout1
350
1E
  3
Layout2
350
26
  3
Model
350
22
  0
DICTIONARY
  5
17
102
{ACAD_REACTORS
330
C
102
}
330
C
100
AcDbDictionary
281
     1
  3
Standard
350
18
  0
DICTIONARY
  5
19
102
{ACAD_REACTORS
330
C
102
}
330
C
100
AcDbDictionary
281
     1
  0
ACDBDICTIONARYWDFLT
  5
E
102
{ACAD_REACTORS
330
C
102
}
330
C
100
AcDbDictionary
281
     1
  3
Normal
350
F
100
AcDbDictionaryWithDefault
340
F
  0
LAYOUT
  5
1E
102
{ACAD_REACTORS
330
1A
102
}
330
1A
100
AcDbPlotSettings
  1

  2

  4

  6

 40
0.0
 41
0.0
 42
0.0
 43
0.0
 44
0.0
 45
0.0
 46
0.0
 47
0.0
 48
0.0
 49
0.0
140
0.0
141
0.0
142
1.0
143
1.0
 70
   688
 72
     0
 73
     0
 74
     5
  7

 75
    16
 76
     0
 77
     2
 78
   300
147
1.0
148
0.0
149
0.0
100
AcDbLayout
  1
Layout1
 70
     1
 71
     1
 10
0.0
 20
0.0
 11
0.0
 21
0.0
 12
0.0
 22
0.0
 32
0.0
 14
0.0
 24
0.0
 34
0.0
 15
0.0
 25
0.0
 35
0.0
146
0.0
 13
0.0
 23
0.0
 33
0.0
 16
1.0
 26
0.0
 36
0.0
 17
0.0
 27
1.0
 37
0.0
 76
     0
330
1B
  0
LAYOUT
  5
26
102
{ACAD_REACTORS
330
1A
102
}
330
1A
100
AcDbPlotSettings
  1

  2

  4

  6

 40
0.0
 41
0.0
 42
0.0
 43
0.0
 44
0.0
 45
0.0
 46
0.0
 47
0.0
 48
0.0
 49
0.0
140
0.0
141
0.0
142
1.0
143
1.0
 70
   688
 72
     0
 73
     0
 74
     5
  7

 75
    16
 76
     0
 77
     2
 78
   300
147
1.0
148
0.0
149
0.0
100
AcDbLayout
  1
Layout2
 70
     1
 71
     2
 10
0.0
 20
0.0
 11
0.0
 21
0.0
 12
0.0
 22
0.0
 32
0.0
 14
0.0
 24
0.0
 34
0.0
 15
0.0
 25
0.0
 35
0.0
146
0.0
 13
0.0
 23
0.0
 33
0.0
 16
1.0
 26
0.0
 36
0.0
 17
0.0
 27
1.0
 37
0.0
 76
     0
330
23
  0
LAYOUT
  5
22
102
{ACAD_REACTORS
330
1A
102
}
330
1A
100
AcDbPlotSettings
  1

  2

  4

  6

 40
0.0
 41
0.0
 42
0.0
 43
0.0
 44
0.0
 45
0.0
 46
0.0
 47
0.0
 48
0.0
 49
0.0
140
0.0
141
0.0
142
1.0
143
1.0
 70
  1712
 72
     0
 73
     0
 74
     0
  7

 75
     0
 76
     0
 77
     2
 78
   300
147
1.0
148
0.0
149
0.0
100
AcDbLayout
  1
Model
 70
     1
 71
     0
 10
0.0
 20
0.0
 11
0.0
 21
0.0
 12
0.0
 22
0.0
 32
0.0
 14
-52.95495817295569
 24
-34.06658802093679
 34
0.0
 15
59.06504177569433
 25
48.3834119790632
 35
0.0
146
0.0
 13
0.0
 23
0.0
 33
0.0
 16
1.0
 26
0.0
 36
0.0
 17
0.0
 27
1.0
 37
0.0
 76
     0
330
1F
  0
MLINESTYLE
  5
18
102
{ACAD_REACTORS
330
17
102
}
330
17
100
AcDbMlineStyle
  2
Standard
 70
     0
  3

 62
   256
 51
90.0
 52
90.0
 71
     2
 49
0.5
 62
   256
  6
BYLAYER
 49
-0.5
 62
   256
  6
BYLAYER
  0
ACDBPLACEHOLDER
  5
F
102
{ACAD_REACTORS
330
E
102
}
330
E
  0
ENDSEC
  0
EOF
