  0
SECTION
  2
HEADER
  9
$ACADVER
  1
AC1018
  9
$ACADMAINTVER
 70
     0
  9
$DWGCODEPAGE
  3
ANSI_1252
  9
$INSBASE
 10
0.0
 20
0.0
 30
0.0
  9
$EXTMIN
 10
-52.4641616728226
 20
-85.2945678638118
 30
0.0
  9
$EXTMAX
 10
71.5358383271774
 20
0.13212087791001
 30
0.0
  9
$LIMMIN
 10
0.0
 20
0.0
  9
$LIMMAX
 10
12.0
 20
9.0
  9
$ORTHOMODE
 70
     0
  9
$REGENMODE
 70
     1
  9
$FILLMODE
 70
     1
  9
$QTEXTMODE
 70
     0
  9
$MIRRTEXT
 70
     1
  9
$LTSCALE
 40
1.0
  9
$ATTMODE
 70
     1
  9
$TEXTSIZE
 40
0.2
  9
$TRACEWID
 40
0.05
  9
$TEXTSTYLE
  7
Standard
  9
$CLAYER
  8
0
  9
$CELTYPE
  6
ByLayer
  9
$CECOLOR
 62
   256
  9
$CELTSCALE
 40
1.0
  9
$DISPSILH
 70
     0
  9
$DIMSCALE
 40
1.0
  9
$DIMASZ
 40
0.18
  9
$DIMEXO
 40
0.0625
  9
$DIMDLI
 40
0.38
  9
$DIMRND
 40
0.0
  9
$DIMDLE
 40
0.0
  9
$DIMEXE
 40
0.18
  9
$DIMTP
 40
0.0
  9
$DIMTM
 40
0.0
  9
$DIMTXT
 40
0.18
  9
$DIMCEN
 40
0.09
  9
$DIMTSZ
 40
0.0
  9
$DIMTOL
 70
     0
  9
$DIMLIM
 70
     0
  9
$DIMTIH
 70
     1
  9
$DIMTOH
 70
     1
  9
$DIMSE1
 70
     0
  9
$DIMSE2
 70
     0
  9
$DIMTAD
 70
     0
  9
$DIMZIN
 70
     0
  9
$DIMBLK
  1

  9
$DIMASO
 70
     1
  9
$DIMSHO
 70
     1
  9
$DIMPOST
  1

  9
$DIMAPOST
  1

  9
$DIMALT
 70
     0
  9
$DIMALTD
 70
     2
  9
$DIMALTF
 40
25.4
  9
$DIMLFAC
 40
1.0
  9
$DIMTOFL
 70
     0
  9
$DIMTVP
 40
0.0
  9
$DIMTIX
 70
     0
  9
$DIMSOXD
 70
     0
  9
$DIMSAH
 70
     0
  9
$DIMBLK1
  1

  9
$DIMBLK2
  1

  9
$DIMSTYLE
  2
Standard
  9
$DIMCLRD
 70
     0
  9
$DIMCLRE
 70
     0
  9
$DIMCLRT
 70
     0
  9
$DIMTFAC
 40
1.0
  9
$DIMGAP
 40
0.09
  9
$DIMJUST
 70
     0
  9
$DIMSD1
 70
     0
  9
$DIMSD2
 70
     0
  9
$DIMTOLJ
 70
     1
  9
$DIMTZIN
 70
     0
  9
$DIMALTZ
 70
     0
  9
$DIMALTTZ
 70
     0
  9
$DIMUPT
 70
     0
  9
$DIMDEC
 70
     4
  9
$DIMTDEC
 70
     4
  9
$DIMALTU
 70
     2
  9
$DIMALTTD
 70
     2
  9
$DIMTXSTY
  7
Standard
  9
$DIMAUNIT
 70
     0
  9
$DIMADEC
 70
     0
  9
$DIMALTRND
 40
0.0
  9
$DIMAZIN
 70
     0
  9
$DIMDSEP
 70
    46
  9
$DIMATFIT
 70
     3
  9
$DIMFRAC
 70
     0
  9
$DIMLDRBLK
  1

  9
$DIMLUNIT
 70
     2
  9
$DIMLWD
 70
    -2
  9
$DIMLWE
 70
    -2
  9
$DIMTMOVE
 70
     0
  9
$LUNITS
 70
     2
  9
$LUPREC
 70
     4
  9
$SKETCHINC
 40
0.1
  9
$FILLETRAD
 40
0.5
  9
$AUNITS
 70
     0
  9
$AUPREC
 70
     0
  9
$MENU
  1
.
  9
$ELEVATION
 40
0.0
  9
$PELEVATION
 40
0.0
  9
$THICKNESS
 40
0.0
  9
$LIMCHECK
 70
     0
  9
$CHAMFERA
 40
0.5
  9
$CHAMFERB
 40
0.5
  9
$CHAMFERC
 40
1.0
  9
$CHAMFERD
 40
0.0
  9
$SKPOLY
 70
     0
  9
$TDCREATE
 40
2454483.372109375
  9
$TDUCREATE
 40
2454483.330442708
  9
$TDUPDATE
 40
2454483.372109387
  9
$TDUUPDATE
 40
2454483.33044272
  9
$TDINDWG
 40
0.0000000116
  9
$TDUSRTIMER
 40
0.0000000116
  9
$USRTIMER
 70
     1
  9
$ANGBASE
 50
0.0
  9
$ANGDIR
 70
     0
  9
$PDMODE
 70
     0
  9
$PDSIZE
 40
0.0
  9
$PLINEWID
 40
0.0
  9
$SPLFRAME
 70
     0
  9
$SPLINETYPE
 70
     6
  9
$SPLINESEGS
 70
     8
  9
$HANDSEED
  5
184
  9
$SURFTAB1
 70
     6
  9
$SURFTAB2
 70
     6
  9
$SURFTYPE
 70
     6
  9
$SURFU
 70
     6
  9
$SURFV
 70
     6
  9
$UCSBASE
  2

  9
$UCSNAME
  2

  9
$UCSORG
 10
0.0
 20
0.0
 30
0.0
  9
$UCSXDIR
 10
1.0
 20
0.0
 30
0.0
  9
$UCSYDIR
 10
0.0
 20
1.0
 30
0.0
  9
$UCSORTHOREF
  2

  9
$UCSORTHOVIEW
 70
     0
  9
$UCSORGTOP
 10
0.0
 20
0.0
 30
0.0
  9
$UCSORGBOTTOM
 10
0.0
 20
0.0
 30
0.0
  9
$UCSORGLEFT
 10
0.0
 20
0.0
 30
0.0
  9
$UCSORGRIGHT
 10
0.0
 20
0.0
 30
0.0
  9
$UCSORGFRONT
 10
0.0
 20
0.0
 30
0.0
  9
$UCSORGBACK
 10
0.0
 20
0.0
 30
0.0
  9
$PUCSBASE
  2

  9
$PUCSNAME
  2

  9
$PUCSORG
 10
0.0
 20
0.0
 30
0.0
  9
$PUCSXDIR
 10
1.0
 20
0.0
 30
0.0
  9
$PUCSYDIR
 10
0.0
 20
1.0
 30
0.0
  9
$PUCSORTHOREF
  2

  9
$PUCSORTHOVIEW
 70
     0
  9
$PUCSORGTOP
 10
0.0
 20
0.0
 30
0.0
  9
$PUCSORGBOTTOM
 10
0.0
 20
0.0
 30
0.0
  9
$PUCSORGLEFT
 10
0.0
 20
0.0
 30
0.0
  9
$PUCSORGRIGHT
 10
0.0
 20
0.0
 30
0.0
  9
$PUCSORGFRONT
 10
0.0
 20
0.0
 30
0.0
  9
$PUCSORGBACK
 10
0.0
 20
0.0
 30
0.0
  9
$USERI1
 70
     0
  9
$USERI2
 70
     0
  9
$USERI3
 70
     0
  9
$USERI4
 70
     0
  9
$USERI5
 70
     0
  9
$USERR1
 40
14.5
  9
$USERR2
 40
0.0
  9
$USERR3
 40
0.0
  9
$USERR4
 40
0.0
  9
$USERR5
 40
0.0
  9
$WORLDVIEW
 70
     1
  9
$SHADEDGE
 70
     3
  9
$SHADEDIF
 70
    70
  9
$TILEMODE
 70
     1
  9
$MAXACTVP
 70
    64
  9
$PINSBASE
 10
0.0
 20
0.0
 30
0.0
  9
$PLIMCHECK
 70
     0
  9
$PEXTMIN
 10
1.00000000000000E+20
 20
1.00000000000000E+20
 30
1.00000000000000E+20
  9
$PEXTMAX
 10
-1.00000000000000E+20
 20
-1.00000000000000E+20
 30
-1.00000000000000E+20
  9
$PLIMMIN
 10
0.0
 20
0.0
  9
$PLIMMAX
 10
12.0
 20
9.0
  9
$UNITMODE
 70
     0
  9
$VISRETAIN
 70
     1
  9
$PLINEGEN
 70
     0
  9
$PSLTSCALE
 70
     1
  9
$TREEDEPTH
 70
  3020
  9
$CMLSTYLE
  2
Standard
  9
$CMLJUST
 70
     0
  9
$CMLSCALE
 40
1.0
  9
$PROXYGRAPHICS
 70
     1
  9
$MEASUREMENT
 70
     1
  9
$CELWEIGHT
370
    -1
  9
$ENDCAPS
280
     0
  9
$JOINSTYLE
280
     0
  9
$LWDISPLAY
290
     0
  9
$INSUNITS
 70
     1
  9
$HYPERLINKBASE
  1

  9
$STYLESHEET
  1

  9
$XEDIT
290
     1
  9
$CEPSNTYPE
380
     0
  9
$PSTYLEMODE
290
     1
  9
$FINGERPRINTGUID
  2
{2688CFF4-C818-4D06-8AEA-64DF812F15BD}
  9
$VERSIONGUID
  2
{FAEB1C32-E019-11D5-929B-00C0DF256EC4}
  9
$EXTNAMES
290
     1
  9
$PSVPSCALE
 40
0.0
  9
$OLESTARTUP
290
     0
  9
$SORTENTS
280
   127
  9
$INDEXCTL
280
     0
  9
$HIDETEXT
280
     1
  9
$XCLIPFRAME
290
     0
  9
$HALOGAP
280
     0
  9
$OBSCOLOR
 70
   257
  9
$OBSLTYPE
280
     0
  9
$INTERSECTIONDISPLAY
280
     0
  9
$INTERSECTIONCOLOR
 70
   257
  9
$DIMASSOC
280
     2
  9
$PROJECTNAME
  1

  0
ENDSEC
  0
SECTION
  2
CLASSES
  0
CLASS
  1
ACDBDICTIONARYWDFLT
  2
AcDbDictionaryWithDefault
  3
ObjectDBX Classes
 90
        0
 91
        3
280
     0
281
     0
  0
ENDSEC
  0
SECTION
  2
TABLES
  0
TABLE
  2
VPORT
  5
8
330
0
100
AcDbSymbolTable
 70
     1
  0
VPORT
  5
29
330
8
100
AcDbSymbolTableRecord
100
AcDbViewportTableRecord
  2
*Active
 70
     0
 10
0.0
 20
0.0
 11
1.0
 21
1.0
 12
9.5358383271774
 22
-42.5812234929509
 13
0.0
 23
0.0
 14
0.5
 24
0.5
 15
0.5
 25
0.5
 16
0.0
 26
0.0
 36
1.0
 17
0.0
 27
0.0
 37
0.0
 40
93.96935761589401
 41
1.60267857142857
 42
50.0
 43
0.0
 44
0.0
 50
0.0
 51
0.0
 71
     0
 72
   100
 73
     1
 74
     3
 75
     0
 76
     0
 77
     0
 78
     0
281
     0
 65
     1
110
0.0
120
0.0
130
0.0
111
1.0
121
0.0
131
0.0
112
0.0
122
1.0
132
0.0
 79
     0
146
0.0
  0
ENDTAB
  0
TABLE
  2
LTYPE
  5
5
330
0
100
AcDbSymbolTable
 70
     8
  0
LTYPE
  5
14
330
5
100
AcDbSymbolTableRecord
100
AcDbLinetypeTableRecord
  2
ByBlock
 70
     0
  3

 72
    65
 73
     0
 40
0.0
  0
LTYPE
  5
15
330
5
100
AcDbSymbolTableRecord
100
AcDbLinetypeTableRecord
  2
ByLayer
 70
     0
  3

 72
    65
 73
     0
 40
0.0
  0
LTYPE
  5
16
330
5
100
AcDbSymbolTableRecord
100
AcDbLinetypeTableRecord
  2
Continuous
 70
     0
  3
Solid line
 72
    65
 73
     0
 40
0.0
  0
LTYPE
  5
2A
330
5
100
AcDbSymbolTableRecord
100
AcDbLinetypeTableRecord
  2
DASHED
 70
     0
  3
Dashed
 72
    65
 73
     2
 40
15.0
 49
7.0
 74
     0
 49
-8.0
 74
     0
  0
LTYPE
  5
2B
330
5
100
AcDbSymbolTableRecord
100
AcDbLinetypeTableRecord
  2
DOTTED
 70
     0
  3
Dotted
 72
    65
 73
     2
 40
1.0
 49
0.0
 74
     0
 49
-1.0
 74
     0
  0
LTYPE
  5
2C
330
5
100
AcDbSymbolTableRecord
100
AcDbLinetypeTableRecord
  2
DOT_CENTER
 70
     0
  3
Dot_Center
 72
    65
 73
     4
 40
14.0
 49
12.0
 74
     0
 49
-1.0
 74
     0
 49
0.0
 74
     0
 49
-1.0
 74
     0
  0
LTYPE
  5
2D
330
5
100
AcDbSymbolTableRecord
100
AcDbLinetypeTableRecord
  2
LONG_DASHED
 70
     0
  3
Long_Dashed
 72
    65
 73
     2
 40
15.0
 49
10.0
 74
     0
 49
-5.0
 74
     0
  0
LTYPE
  5
2E
330
5
100
AcDbSymbolTableRecord
100
AcDbLinetypeTableRecord
  2
DASH_CENTER
 70
     0
  3
Dash_Center
 72
    65
 73
     4
 40
14.0
 49
11.0
 74
     0
 49
-1.0
 74
     0
 49
1.0
 74
     0
 49
-1.0
 74
     0
  0
LTYPE
  5
2F
330
5
100
AcDbSymbolTableRecord
100
AcDbLinetypeTableRecord
  2
PHANTOM
 70
     0
  3
Phantom
 72
    65
 73
     6
 40
13.0
 49
10.0
 74
     0
 49
-1.0
 74
     0
 49
0.0
 74
     0
 49
-1.0
 74
     0
 49
0.0
 74
     0
 49
-1.0
 74
     0
  0
LTYPE
  5
30
330
5
100
AcDbSymbolTableRecord
100
AcDbLinetypeTableRecord
  2
CENTER_DASH_DASH
 70
     0
  3
Center_Dash_Dash
 72
    65
 73
     6
 40
14.0
 49
9.0
 74
     0
 49
-1.0
 74
     0
 49
1.0
 74
     0
 49
-1.0
 74
     0
 49
1.0
 74
     0
 49
-1.0
 74
     0
  0
ENDTAB
  0
TABLE
  2
LAYER
  5
2
330
0
100
AcDbSymbolTable
 70
     2
  0
LAYER
  5
10
330
2
100
AcDbSymbolTableRecord
100
AcDbLayerTableRecord
  2
0
 70
     0
 62
     7
  6
Continuous
370
    -3
390
F
  0
LAYER
  5
31
330
2
100
AcDbSymbolTableRecord
100
AcDbLayerTableRecord
  2
1
 70
     0
 62
     7
  6
Continuous
370
    -3
390
F
  0
ENDTAB
  0
TABLE
  2
STYLE
  5
3
330
0
100
AcDbSymbolTable
 70
     1
  0
STYLE
  5
11
330
3
100
AcDbSymbolTableRecord
100
AcDbTextStyleTableRecord
  2
Standard
 70
     0
 40
0.0
 41
1.0
 50
0.0
 71
     0
 42
0.2
  3
txt
  4

  0
ENDTAB
  0
TABLE
  2
VIEW
  5
6
330
0
100
AcDbSymbolTable
 70
     0
  0
ENDTAB
  0
TABLE
  2
UCS
  5
7
330
0
100
AcDbSymbolTable
 70
     0
  0
ENDTAB
  0
TABLE
  2
APPID
  5
9
330
0
100
AcDbSymbolTable
 70
     1
  0
APPID
  5
12
330
9
100
AcDbSymbolTableRecord
100
AcDbRegAppTableRecord
  2
ACAD
 70
     0
  0
ENDTAB
  0
TABLE
  2
DIMSTYLE
  5
A
330
0
100
AcDbSymbolTable
 70
     1
100
AcDbDimStyleTable
  0
DIMSTYLE
105
27
330
A
100
AcDbSymbolTableRecord
100
AcDbDimStyleTableRecord
  2
Standard
 70
     0
340
11
  0
ENDTAB
  0
TABLE
  2
BLOCK_RECORD
  5
1
330
0
100
AcDbSymbolTable
 70
     1
  0
BLOCK_RECORD
  5
1F
330
1
100
AcDbSymbolTableRecord
100
AcDbBlockTableRecord
  2
*Model_Space
340
22
  0
BLOCK_RECORD
  5
1B
330
1
100
AcDbSymbolTableRecord
100
AcDbBlockTableRecord
  2
*Paper_Space
340
1E
  0
BLOCK_RECORD
  5
23
330
1
100
AcDbSymbolTableRecord
100
AcDbBlockTableRecord
  2
*Paper_Space0
340
26
  0
ENDTAB
  0
ENDSEC
  0
SECTION
  2
BLOCKS
  0
BLOCK
  5
20
330
1F
100
AcDbEntity
  8
0
100
AcDbBlockBegin
  2
*Model_Space
 70
     0
 71
     0
 10
0.0
 20
0.0
 30
0.0
  3
*Model_Space
  1

  0
ENDBLK
  5
21
330
1F
100
AcDbEntity
  8
0
100
AcDbBlockEnd
  0
BLOCK
  5
1C
330
1B
100
AcDbEntity
 67
     1
  8
0
100
AcDbBlockBegin
  2
*Paper_Space
 70
     0
 71
     0
 10
0.0
 20
0.0
 30
0.0
  3
*Paper_Space
  1

  0
ENDBLK
  5
1D
330
1B
100
AcDbEntity
 67
     1
  8
0
100
AcDbBlockEnd
  0
BLOCK
  5
24
330
23
100
AcDbEntity
  8
0
100
AcDbBlockBegin
  2
*Paper_Space0
 70
     0
 71
     0
 10
0.0
 20
0.0
 30
0.0
  3
*Paper_Space0
  1

  0
ENDBLK
  5
25
330
23
100
AcDbEntity
  8
0
100
AcDbBlockEnd
  0
ENDSEC
  0
SECTION
  2
ENTITIES
  0
LINE
  5
32
330
1F
100
AcDbEntity
  8
1
  6
Continuous
 62
     7
100
AcDbLine
 10
-11.4641616728226
 20
-71.97962305542904
 30
0.0
 11
-11.4641616728226
 21
-66.86787912209
 31
0.0
  0
LINE
  5
33
330
1F
100
AcDbEntity
  8
1
  6
Continuous
 62
     7
100
AcDbLine
 10
-11.4641616728226
 20
-71.97962305542904
 30
0.0
 11
26.04813873596439
 21
-68.69772202688131
 31
0.0
  0
LINE
  5
34
330
1F
100
AcDbEntity
  8
1
  6
Continuous
 62
     7
100
AcDbLine
 10
-11.4641616728226
 20
-80.86787912209
 30
0.0
 11
-11.4641616728226
 21
-79.00636191823246
 31
0.0
  0
LINE
  5
35
330
1F
100
AcDbEntity
  8
1
  6
Continuous
 62
     7
100
AcDbLine
 10
-11.4641616728226
 20
-66.86787912209
 30
0.0
 11
-9.9641616728226
 21
-66.86787912209
 31
0.0
  0
LINE
  5
36
330
1F
100
AcDbEntity
  8
1
  6
Continuous
 62
     7
100
AcDbLine
 10
-9.9641616728226
 20
-66.86787912209
 30
0.0
 11
-9.9641616728226
 21
-68.36787912209
 31
0.0
  0
LINE
  5
37
330
1F
100
AcDbEntity
  8
1
  6
Continuous
 62
     7
100
AcDbLine
 10
4.0358383271774
 20
-77.86787912209
 30
0.0
 11
8.0358383271774
 21
-77.86787912209
 31
0.0
  0
LINE
  5
38
330
1F
100
AcDbEntity
  8
1
  6
Continuous
 62
     7
100
AcDbLine
 10
8.5358383271774
 20
-77.36787912209
 30
0.0
 11
8.5358383271774
 21
-77.25658864771398
 31
0.0
  0
LINE
  5
39
330
1F
100
AcDbEntity
  8
1
  6
Continuous
 62
     7
100
AcDbLine
 10
-9.9641616728226
 20
-68.36787912209
 30
0.0
 11
-6.4641616728226
 21
-68.36787912209
 31
0.0
  0
LINE
  5
3A
330
1F
100
AcDbEntity
  8
1
  6
Continuous
 62
     7
100
AcDbLine
 10
-6.4641616728226
 20
-68.36787912209
 30
0.0
 11
-6.4641616728226
 21
-69.86787912209
 31
0.0
  0
LINE
  5
3B
330
1F
100
AcDbEntity
  8
1
  6
Continuous
 62
     7
100
AcDbLine
 10
-6.4641616728226
 20
-69.86787912209
 30
0.0
 11
-8.4641616728226
 21
-69.86787912209
 31
0.0
  0
LINE
  5
3C
330
1F
100
AcDbEntity
  8
1
  6
Continuous
 62
     7
100
AcDbLine
 10
-8.4641616728226
 20
-69.86787912209
 30
0.0
 11
-8.4641616728226
 21
-71.71715706485128
 31
0.0
  0
LINE
  5
3D
330
1F
100
AcDbEntity
  8
1
  6
Continuous
 62
     7
100
AcDbLine
 10
-1.4641616728226
 20
-69.86787912209
 30
0.0
 11
-3.4641616728226
 21
-69.86787912209
 31
0.0
  0
LINE
  5
3E
330
1F
100
AcDbEntity
  8
1
  6
Continuous
 62
     7
100
AcDbLine
 10
-3.4641616728226
 20
-69.86787912209
 30
0.0
 11
-3.4641616728226
 21
-68.36787912209
 31
0.0
  0
LINE
  5
3F
330
1F
100
AcDbEntity
  8
1
  6
Continuous
 62
     7
100
AcDbLine
 10
-3.4641616728226
 20
-68.36787912209
 30
0.0
 11
8.5358383271774
 21
-68.36787912209
 31
0.0
  0
LINE
  5
40
330
1F
100
AcDbEntity
  8
1
  6
Continuous
 62
     7
100
AcDbLine
 10
-11.4641616728226
 20
-80.86787912209
 30
0.0
 11
51.5358383271774
 21
-80.86787912209002
 31
0.0
  0
LINE
  5
41
330
1F
100
AcDbEntity
  8
1
  6
Continuous
 62
     7
100
AcDbLine
 10
8.5358383271774
 20
-68.36787912209
 30
0.0
 11
8.5358383271774
 21
-64.36787912209
 31
0.0
  0
LINE
  5
42
330
1F
100
AcDbEntity
  8
1
  6
Continuous
 62
     7
100
AcDbLine
 10
8.5358383271774
 20
-64.36787912209
 30
0.0
 11
11.0358383271774
 21
-64.36787912209
 31
0.0
  0
LINE
  5
43
330
1F
100
AcDbEntity
  8
1
  6
Continuous
 62
     7
100
AcDbLine
 10
11.0358383271774
 20
-64.36787912209
 30
0.0
 11
11.0358383271774
 21
-62.36787912209
 31
0.0
  0
LINE
  5
44
330
1F
100
AcDbEntity
  8
1
  6
Continuous
 62
     7
100
AcDbLine
 10
11.0358383271774
 20
-62.36787912209
 30
0.0
 11
14.5358383271774
 21
-62.36787912209
 31
0.0
  0
LINE
  5
45
330
1F
100
AcDbEntity
  8
1
  6
Continuous
 62
     7
100
AcDbLine
 10
14.5358383271774
 20
-62.36787912209
 30
0.0
 11
14.5358383271774
 21
-64.36787912209
 31
0.0
  0
LINE
  5
46
330
1F
100
AcDbEntity
  8
1
  6
Continuous
 62
     7
100
AcDbLine
 10
14.5358383271774
 20
-64.36787912209
 30
0.0
 11
19.5358383271774
 21
-64.36787912209
 31
0.0
  0
LINE
  5
47
330
1F
100
AcDbEntity
  8
1
  6
Continuous
 62
     7
100
AcDbLine
 10
19.5358383271774
 20
-64.36787912209
 30
0.0
 11
19.5358383271774
 21
-48.36787912209
 31
0.0
  0
LINE
  5
48
330
1F
100
AcDbEntity
  8
1
  6
Continuous
 62
     7
100
AcDbLine
 10
19.5358383271774
 20
-48.36787912209
 30
0.0
 11
14.5358383271774
 21
-48.36787912209
 31
0.0
  0
LINE
  5
49
330
1F
100
AcDbEntity
  8
1
  6
Continuous
 62
     7
100
AcDbLine
 10
14.5358383271774
 20
-48.36787912209
 30
0.0
 11
14.5358383271774
 21
-50.36787912209
 31
0.0
  0
LINE
  5
4A
330
1F
100
AcDbEntity
  8
1
  6
Continuous
 62
     7
100
AcDbLine
 10
14.5358383271774
 20
-50.36787912209
 30
0.0
 11
11.0358383271774
 21
-50.36787912209
 31
0.0
  0
LINE
  5
4B
330
1F
100
AcDbEntity
  8
1
  6
Continuous
 62
     7
100
AcDbLine
 10
11.0358383271774
 20
-48.36787912209
 30
0.0
 11
8.5358383271774
 21
-48.36787912209
 31
0.0
  0
LINE
  5
4C
330
1F
100
AcDbEntity
  8
1
  6
Continuous
 62
     7
100
AcDbLine
 10
19.5358383271774
 20
-67.36787912209
 30
0.0
 11
11.0358383271774
 21
-67.36787912209
 31
0.0
  0
LINE
  5
4D
330
1F
100
AcDbEntity
  8
1
  6
Continuous
 62
     7
100
AcDbLine
 10
11.0358383271774
 20
-67.36787912209
 30
0.0
 11
10.70177890007475
 21
-70.0403545389112
 31
0.0
  0
LINE
  5
4E
330
1F
100
AcDbEntity
  8
1
  6
Continuous
 62
     7
100
AcDbLine
 10
22.5358383271774
 20
-64.36787912209
 30
0.0
 11
22.5358383271774
 21
-60.36787912209
 31
0.0
  0
LINE
  5
4F
330
1F
100
AcDbEntity
  8
1
  6
Continuous
 62
     7
100
AcDbLine
 10
22.5358383271774
 20
-60.36787912209
 30
0.0
 11
26.07170930947172
 21
-57.53918233625455
 31
0.0
  0
LINE
  5
50
330
1F
100
AcDbEntity
  8
1
  6
Continuous
 62
     7
100
AcDbLine
 10
26.07170930947172
 20
-55.19657590792546
 30
0.0
 11
22.5358383271774
 21
-52.36787912209
 31
0.0
  0
LINE
  5
51
330
1F
100
AcDbEntity
  8
1
  6
Continuous
 62
     7
100
AcDbLine
 10
22.5358383271774
 20
-58.44694185086015
 30
0.0
 11
22.5358383271774
 21
-54.28881639331986
 31
0.0
  0
LINE
  5
52
330
1F
100
AcDbEntity
  8
1
  6
Continuous
 62
     7
100
AcDbLine
 10
22.5358383271774
 20
-54.28881639331986
 30
0.0
 11
25.13466673814008
 21
-56.36787912209
 31
0.0
  0
LINE
  5
53
330
1F
100
AcDbEntity
  8
1
  6
Continuous
 62
     7
100
AcDbLine
 10
25.13466673814008
 20
-56.36787912209
 30
0.0
 11
22.5358383271774
 21
-58.44694185086015
 31
0.0
  0
LINE
  5
54
330
1F
100
AcDbEntity
  8
1
  6
Continuous
 62
     7
100
AcDbLine
 10
8.5358383271774
 20
-48.36787912209
 30
0.0
 11
8.5358383271774
 21
-40.86787912209
 31
0.0
  0
LINE
  5
55
330
1F
100
AcDbEntity
  8
1
  6
Continuous
 62
     7
100
AcDbLine
 10
8.5358383271774
 20
-40.86787912209
 30
0.0
 11
13.2858383271774
 21
-40.86787912209
 31
0.0
  0
LINE
  5
56
330
1F
100
AcDbEntity
  8
1
  6
Continuous
 62
     7
100
AcDbLine
 10
13.2858383271774
 20
-40.86787912209
 30
0.0
 11
13.2858383271774
 21
-42.36787912209
 31
0.0
  0
LINE
  5
57
330
1F
100
AcDbEntity
  8
1
  6
Continuous
 62
     7
100
AcDbLine
 10
13.2858383271774
 20
-42.36787912209
 30
0.0
 11
11.0358383271774
 21
-42.36787912209
 31
0.0
  0
LINE
  5
58
330
1F
100
AcDbEntity
  8
1
  6
Continuous
 62
     7
100
AcDbLine
 10
11.0358383271774
 20
-42.36787912209
 30
0.0
 11
11.0358383271774
 21
-45.86787912209
 31
0.0
  0
LINE
  5
59
330
1F
100
AcDbEntity
  8
1
  6
Continuous
 62
     7
100
AcDbLine
 10
11.0358383271774
 20
-45.86787912209
 30
0.0
 11
18.5358383271774
 21
-45.86787912209
 31
0.0
  0
LINE
  5
5A
330
1F
100
AcDbEntity
  8
1
  6
Continuous
 62
     7
100
AcDbLine
 10
18.5358383271774
 20
-45.86787912209
 30
0.0
 11
18.5358383271774
 21
-42.36787912209
 31
0.0
  0
LINE
  5
5B
330
1F
100
AcDbEntity
  8
1
  6
Continuous
 62
     7
100
AcDbLine
 10
18.5358383271774
 20
-42.36787912209
 30
0.0
 11
16.2858383271774
 21
-42.36787912209
 31
0.0
  0
LINE
  5
5C
330
1F
100
AcDbEntity
  8
1
  6
Continuous
 62
     7
100
AcDbLine
 10
16.2858383271774
 20
-42.36787912209
 30
0.0
 11
16.2858383271774
 21
-40.86787912209
 31
0.0
  0
LINE
  5
5D
330
1F
100
AcDbEntity
  8
1
  6
Continuous
 62
     7
100
AcDbLine
 10
16.2858383271774
 20
-40.86787912209
 30
0.0
 11
19.5358383271774
 21
-40.86787912209
 31
0.0
  0
LINE
  5
5E
330
1F
100
AcDbEntity
  8
1
  6
Continuous
 62
     7
100
AcDbLine
 10
11.0358383271774
 20
-48.36787912209
 30
0.0
 11
11.0358383271774
 21
-50.36787912209
 31
0.0
  0
LINE
  5
5F
330
1F
100
AcDbEntity
  8
1
  6
Continuous
 62
     7
100
AcDbLine
 10
19.5358383271774
 20
-24.86787912209
 30
0.0
 11
19.5358383271774
 21
-40.86787912209
 31
0.0
  0
LINE
  5
60
330
1F
100
AcDbEntity
  8
1
  6
Continuous
 62
     7
100
AcDbLine
 10
19.5358383271774
 20
-24.86787912209
 30
0.0
 11
21.5358383271774
 21
-24.86787912209
 31
0.0
  0
LINE
  5
61
330
1F
100
AcDbEntity
  8
1
  6
Continuous
 62
     7
100
AcDbLine
 10
21.5358383271774
 20
-19.36787912209
 30
0.0
 11
21.5358383271774
 21
-24.86787912209
 31
0.0
  0
LINE
  5
62
330
1F
100
AcDbEntity
  8
1
  6
Continuous
 62
     7
100
AcDbLine
 10
22.5358383271774
 20
-52.36787912209
 30
0.0
 11
22.5358383271774
 21
-46.73390452587444
 31
0.0
  0
LINE
  5
63
330
1F
100
AcDbEntity
  8
1
  6
Continuous
 62
     7
100
AcDbLine
 10
21.7858383271774
 20
-45.43486642019779
 30
0.0
 11
21.5358383271774
 21
-45.29052885290038
 31
0.0
  0
LINE
  5
64
330
1F
100
AcDbEntity
  8
1
  6
Continuous
 62
     7
100
AcDbLine
 10
21.5358383271774
 20
-45.29052885290038
 30
0.0
 11
21.5358383271774
 21
-42.36787912209
 31
0.0
  0
LINE
  5
65
330
1F
100
AcDbEntity
  8
1
  6
Continuous
 62
     7
100
AcDbLine
 10
21.5358383271774
 20
-42.36787912209
 30
0.0
 11
21.7858383271774
 21
-42.2235415547926
 31
0.0
  0
LINE
  5
66
330
1F
100
AcDbEntity
  8
1
  6
Continuous
 62
     7
100
AcDbLine
 10
22.5358383271774
 20
-39.86787912209
 30
0.0
 11
22.5358383271774
 21
-27.36787912209
 31
0.0
  0
LINE
  5
67
330
1F
100
AcDbEntity
  8
1
  6
Continuous
 62
     7
100
AcDbLine
 10
22.5358383271774
 20
-27.36787912209
 30
0.0
 11
43.5358383271774
 21
-27.36787912209
 31
0.0
  0
LINE
  5
68
330
1F
100
AcDbEntity
  8
1
  6
Continuous
 62
     7
100
AcDbLine
 10
22.5358383271774
 20
-39.86787912209
 30
0.0
 11
22.5358383271774
 21
-40.92450344911594
 31
0.0
  0
LINE
  5
69
330
1F
100
AcDbEntity
  8
1
  6
Continuous
 62
     7
100
AcDbLine
 10
21.5358383271774
 20
-19.36787912209
 30
0.0
 11
19.5358383271774
 21
-19.36787912209
 31
0.0
  0
LINE
  5
6A
330
1F
100
AcDbEntity
  8
1
  6
Continuous
 62
     7
100
AcDbLine
 10
16.5358383271774
 20
-16.36787912209
 30
0.0
 11
30.74929730618652
 21
-16.36787912209
 31
0.0
  0
LINE
  5
6B
330
1F
100
AcDbEntity
  8
1
  6
Continuous
 62
     7
100
AcDbLine
 10
24.5358383271774
 20
-19.36787912209
 30
0.0
 11
24.5358383271774
 21
-25.86787912209
 31
0.0
  0
LINE
  5
6C
330
1F
100
AcDbEntity
  8
1
  6
Continuous
 62
     7
100
AcDbLine
 10
24.5358383271774
 20
-25.86787912209
 30
0.0
 11
43.5358383271774
 21
-25.86787912209
 31
0.0
  0
LINE
  5
6D
330
1F
100
AcDbEntity
  8
1
  6
Continuous
 62
     7
100
AcDbLine
 10
31.72114741187523
 20
-15.60347914771151
 30
0.0
 11
35.35052924247958
 21
-0.63227909646851
 31
0.0
  0
LINE
  5
6E
330
1F
100
AcDbEntity
  8
1
  6
Continuous
 62
     7
100
AcDbLine
 10
36.32237934816829
 20
0.13212087790999
 30
0.0
 11
66.92766848511837
 21
0.13212087790998
 31
0.0
  0
LINE
  5
6F
330
1F
100
AcDbEntity
  8
1
  6
Continuous
 62
     7
100
AcDbLine
 10
67.89951859080708
 20
-0.63227909646852
 30
0.0
 11
71.50650342563414
 21
-13.14721402363328
 31
0.0
  0
LINE
  5
70
330
1F
100
AcDbEntity
  8
1
  6
Continuous
 62
     7
100
AcDbLine
 10
43.5358383271774
 20
-25.86787912209
 30
0.0
 11
43.5358383271774
 21
-17.36787912209
 31
0.0
  0
LINE
  5
71
330
1F
100
AcDbEntity
  8
1
  6
Continuous
 62
     7
100
AcDbLine
 10
43.5358383271774
 20
-17.36787912209
 30
0.0
 11
34.38030987499856
 21
-17.36787912209
 31
0.0
  0
LINE
  5
72
330
1F
100
AcDbEntity
  8
1
  6
Continuous
 62
     7
100
AcDbLine
 10
34.38030987499856
 20
-17.36787912209
 30
0.0
 11
34.26607955954571
 21
-17.83907917333301
 31
0.0
  0
LINE
  5
73
330
1F
100
AcDbEntity
  8
1
  6
Continuous
 62
     7
100
AcDbLine
 10
32.3223793481683
 20
-19.36787912209
 30
0.0
 11
24.5358383271774
 21
-19.36787912209
 31
0.0
  0
LINE
  5
74
330
1F
100
AcDbEntity
  8
1
  6
Continuous
 62
     7
100
AcDbLine
 10
43.5358383271774
 20
-15.86787912209
 30
0.0
 11
34.74394623863492
 21
-15.86787912209
 31
0.0
  0
LINE
  5
75
330
1F
100
AcDbEntity
  8
1
  6
Continuous
 62
     7
100
AcDbLine
 10
34.74394623863492
 20
-15.86787912209
 30
0.0
 11
37.89546139015006
 21
-2.86787912209001
 31
0.0
  0
LINE
  5
76
330
1F
100
AcDbEntity
  8
1
  6
Continuous
 62
     7
100
AcDbLine
 10
37.89546139015006
 20
-2.86787912209001
 30
0.0
 11
65.42173482551591
 21
-2.86787912209002
 31
0.0
  0
LINE
  5
77
330
1F
100
AcDbEntity
  8
1
  6
Continuous
 62
     7
100
AcDbLine
 10
10.5358383271774
 20
-77.86787912209
 30
0.0
 11
31.0358383271774
 21
-77.86787912209
 31
0.0
  0
LINE
  5
78
330
1F
100
AcDbEntity
  8
1
  6
Continuous
 62
     7
100
AcDbLine
 10
31.0358383271774
 20
-77.86787912209
 30
0.0
 11
31.0358383271774
 21
-73.86787912209
 31
0.0
  0
LINE
  5
79
330
1F
100
AcDbEntity
  8
1
  6
Continuous
 62
     7
100
AcDbLine
 10
31.0358383271774
 20
-73.86787912209
 30
0.0
 11
32.5358383271774
 21
-73.86787912209
 31
0.0
  0
LINE
  5
7A
330
1F
100
AcDbEntity
  8
1
  6
Continuous
 62
     7
100
AcDbLine
 10
32.5358383271774
 20
-73.86787912209
 30
0.0
 11
32.5358383271774
 21
-77.86787912209
 31
0.0
  0
LINE
  5
7B
330
1F
100
AcDbEntity
  8
1
  6
Continuous
 62
     7
100
AcDbLine
 10
32.5358383271774
 20
-77.86787912209
 30
0.0
 11
43.5358383271774
 21
-77.86787912209
 31
0.0
  0
LINE
  5
7C
330
1F
100
AcDbEntity
  8
1
  6
Continuous
 62
     7
100
AcDbLine
 10
43.5358383271774
 20
-77.86787912209
 30
0.0
 11
43.5358383271774
 21
-53.86787912209002
 31
0.0
  0
LINE
  5
7D
330
1F
100
AcDbEntity
  8
1
  6
Continuous
 62
     7
100
AcDbLine
 10
46.5358383271774
 20
-50.86787912209002
 30
0.0
 11
48.5358383271774
 21
-50.86787912209002
 31
0.0
  0
LINE
  5
7E
330
1F
100
AcDbEntity
  8
1
  6
Continuous
 62
     7
100
AcDbLine
 10
48.5358383271774
 20
-50.86787912209002
 30
0.0
 11
48.5358383271774
 21
-38.86787912209002
 31
0.0
  0
LINE
  5
7F
330
1F
100
AcDbEntity
  8
1
  6
Continuous
 62
     7
100
AcDbLine
 10
48.5358383271774
 20
-38.86787912209002
 30
0.0
 11
46.5358383271774
 21
-38.86787912209002
 31
0.0
  0
LINE
  5
80
330
1F
100
AcDbEntity
  8
1
  6
Continuous
 62
     7
100
AcDbLine
 10
43.5358383271774
 20
-35.86787912209002
 30
0.0
 11
43.5358383271774
 21
-27.36787912209
 31
0.0
  0
LINE
  5
81
330
1F
100
AcDbEntity
  8
1
  6
Continuous
 62
     7
100
AcDbLine
 10
51.5358383271774
 20
-80.86787912209002
 30
0.0
 11
51.5358383271774
 21
-77.36787912209
 31
0.0
  0
LINE
  5
82
330
1F
100
AcDbEntity
  8
1
  6
Continuous
 62
     7
100
AcDbLine
 10
51.5358383271774
 20
-77.36787912209
 30
0.0
 11
49.5358383271774
 21
-77.36787912209
 31
0.0
  0
LINE
  5
83
330
1F
100
AcDbEntity
  8
1
  6
Continuous
 62
     7
100
AcDbLine
 10
49.5358383271774
 20
-77.36787912209
 30
0.0
 11
49.5358383271774
 21
-78.86787912209002
 31
0.0
  0
LINE
  5
84
330
1F
100
AcDbEntity
  8
1
  6
Continuous
 62
     7
100
AcDbLine
 10
49.5358383271774
 20
-78.86787912209002
 30
0.0
 11
46.5358383271774
 21
-78.86787912209002
 31
0.0
  0
LINE
  5
85
330
1F
100
AcDbEntity
  8
1
  6
Continuous
 62
     7
100
AcDbLine
 10
46.5358383271774
 20
-78.86787912209002
 30
0.0
 11
46.5358383271774
 21
-53.86787912209002
 31
0.0
  0
LINE
  5
86
330
1F
100
AcDbEntity
  8
1
  6
Continuous
 62
     7
100
AcDbLine
 10
46.5358383271774
 20
-53.86787912209002
 30
0.0
 11
49.5358383271774
 21
-53.86787912209002
 31
0.0
  0
LINE
  5
87
330
1F
100
AcDbEntity
  8
1
  6
Continuous
 62
     7
100
AcDbLine
 10
49.5358383271774
 20
-53.86787912209002
 30
0.0
 11
49.5358383271774
 21
-57.86787912209002
 31
0.0
  0
LINE
  5
88
330
1F
100
AcDbEntity
  8
1
  6
Continuous
 62
     7
100
AcDbLine
 10
49.5358383271774
 20
-57.86787912209002
 30
0.0
 11
50.0358383271774
 21
-57.86787912209002
 31
0.0
  0
LINE
  5
89
330
1F
100
AcDbEntity
  8
1
  6
Continuous
 62
     7
100
AcDbLine
 10
50.0358383271774
 20
-57.86787912209002
 30
0.0
 11
51.5358383271774
 21
-56.36787912209002
 31
0.0
  0
LINE
  5
8A
330
1F
100
AcDbEntity
  8
1
  6
Continuous
 62
     7
100
AcDbLine
 10
51.5358383271774
 20
-56.36787912209002
 30
0.0
 11
51.5358383271774
 21
-36.86787912209002
 31
0.0
  0
LINE
  5
8B
330
1F
100
AcDbEntity
  8
1
  6
Continuous
 62
     7
100
AcDbLine
 10
43.5358383271774
 20
-12.25969120918839
 30
0.0
 11
43.5358383271774
 21
-15.86787912209
 31
0.0
  0
LINE
  5
8C
330
1F
100
AcDbEntity
  8
1
  6
Continuous
 62
     7
100
AcDbLine
 10
46.5358383271774
 20
-12.36787912209
 30
0.0
 11
46.5358383271774
 21
-35.86787912209002
 31
0.0
  0
LINE
  5
8D
330
1F
100
AcDbEntity
  8
1
  6
Continuous
 62
     7
100
AcDbLine
 10
50.0358383271774
 20
-9.36787912209
 30
0.0
 11
60.71420950610926
 21
-9.36787912209
 31
0.0
  0
LINE
  5
8E
330
1F
100
AcDbEntity
  8
1
  6
Continuous
 62
     7
100
AcDbLine
 10
60.71420950610926
 20
-9.36787912209
 30
0.0
 11
61.09748232639972
 21
-7.19423094442309
 31
0.0
  0
LINE
  5
8F
330
1F
100
AcDbEntity
  8
1
  6
Continuous
 62
     7
100
AcDbLine
 10
62.08229007941193
 20
-6.36787912209002
 30
0.0
 11
66.43048533004249
 21
-6.36787912209002
 31
0.0
  0
LINE
  5
90
330
1F
100
AcDbEntity
  8
1
  6
Continuous
 62
     7
100
AcDbLine
 10
66.43048533004249
 20
-6.36787912209002
 30
0.0
 11
65.42173482551591
 21
-2.86787912209002
 31
0.0
  0
LINE
  5
91
330
1F
100
AcDbEntity
  8
1
  6
Continuous
 62
     7
100
AcDbLine
 10
70.06517322872065
 20
-13.56262618458353
 30
0.0
 11
69.72082988527151
 21
-12.36787912209
 31
0.0
  0
LINE
  5
92
330
1F
100
AcDbEntity
  8
1
  6
Continuous
 62
     7
100
AcDbLine
 10
48.5358383271774
 20
-12.36787912209
 30
0.0
 11
62.97285895287518
 21
-12.36787912209
 31
0.0
  0
LINE
  5
93
330
1F
100
AcDbEntity
  8
1
  6
Continuous
 62
     7
100
AcDbLine
 10
62.97285895287518
 20
-12.36787912209
 30
0.0
 11
62.97285895287518
 21
-10.86787912209
 31
0.0
  0
LINE
  5
94
330
1F
100
AcDbEntity
  8
1
  6
Continuous
 62
     7
100
AcDbLine
 10
62.97285895287518
 20
-10.86787912209
 30
0.0
 11
61.97285895287518
 21
-10.86787912209
 31
0.0
  0
LINE
  5
95
330
1F
100
AcDbEntity
  8
1
  6
Continuous
 62
     7
100
AcDbLine
 10
61.97285895287518
 20
-10.86787912209
 30
0.0
 11
62.50183989500057
 21
-7.86787912209002
 31
0.0
  0
LINE
  5
96
330
1F
100
AcDbEntity
  8
1
  6
Continuous
 62
     7
100
AcDbLine
 10
62.50183989500057
 20
-7.86787912209002
 30
0.0
 11
66.86280697483959
 21
-7.86787912209002
 31
0.0
  0
LINE
  5
97
330
1F
100
AcDbEntity
  8
1
  6
Continuous
 62
     7
100
AcDbLine
 10
66.86280697483959
 20
-7.86787912209002
 30
0.0
 11
67.72745026443378
 21
-10.86787912209
 31
0.0
  0
LINE
  5
98
330
1F
100
AcDbEntity
  8
1
  6
Continuous
 62
     7
100
AcDbLine
 10
67.72745026443378
 20
-10.86787912209
 30
0.0
 11
66.72745026443378
 21
-10.86787912209
 31
0.0
  0
LINE
  5
99
330
1F
100
AcDbEntity
  8
1
  6
Continuous
 62
     7
100
AcDbLine
 10
66.72745026443378
 20
-10.86787912209
 30
0.0
 11
66.72745026443378
 21
-12.36787912209
 31
0.0
  0
LINE
  5
9A
330
1F
100
AcDbEntity
  8
1
  6
Continuous
 62
     7
100
AcDbLine
 10
66.72745026443378
 20
-12.36787912209
 30
0.0
 11
69.72082988527151
 21
-12.36787912209
 31
0.0
  0
LINE
  5
9B
330
1F
100
AcDbEntity
  8
1
  6
Continuous
 62
     7
100
AcDbLine
 10
46.5358383271774
 20
-35.86787912209002
 30
0.0
 11
49.5358383271774
 21
-35.86787912209002
 31
0.0
  0
LINE
  5
9C
330
1F
100
AcDbEntity
  8
1
  6
Continuous
 62
     7
100
AcDbLine
 10
49.5358383271774
 20
-35.86787912209002
 30
0.0
 11
49.5358383271774
 21
-34.86787912209002
 31
0.0
  0
LINE
  5
9D
330
1F
100
AcDbEntity
  8
1
  6
Continuous
 62
     7
100
AcDbLine
 10
49.5358383271774
 20
-34.86787912209002
 30
0.0
 11
51.5358383271774
 21
-36.86787912209002
 31
0.0
  0
LINE
  5
9E
330
1F
100
AcDbEntity
  8
1
  6
Continuous
 62
     7
100
AcDbLine
 10
-47.4641616728226
 20
-64.86787912208999
 30
0.0
 11
-28.9641616728226
 21
-64.86787912208999
 31
0.0
  0
LINE
  5
9F
330
1F
100
AcDbEntity
  8
1
  6
Continuous
 62
     7
100
AcDbLine
 10
-3.4641616728226
 20
-64.86787912209
 30
0.0
 11
-3.4641616728226
 21
-61.36787912209
 31
0.0
  0
LINE
  5
A0
330
1F
100
AcDbEntity
  8
1
  6
Continuous
 62
     7
100
AcDbLine
 10
-3.4641616728226
 20
-61.36787912209
 30
0.0
 11
-5.4641616728226
 21
-61.36787912209
 31
0.0
  0
LINE
  5
A1
330
1F
100
AcDbEntity
  8
1
  6
Continuous
 62
     7
100
AcDbLine
 10
-5.4641616728226
 20
-61.36787912209
 30
0.0
 11
-5.4641616728226
 21
-62.86787912209
 31
0.0
  0
LINE
  5
A2
330
1F
100
AcDbEntity
  8
1
  6
Continuous
 62
     7
100
AcDbLine
 10
-5.4641616728226
 20
-62.86787912209
 30
0.0
 11
-8.4641616728226
 21
-62.86787912209
 31
0.0
  0
LINE
  5
A3
330
1F
100
AcDbEntity
  8
1
  6
Continuous
 62
     7
100
AcDbLine
 10
-8.4641616728226
 20
-37.36787912209
 30
0.0
 11
-8.4641616728226
 21
-62.86787912209
 31
0.0
  0
LINE
  5
A4
330
1F
100
AcDbEntity
  8
1
  6
Continuous
 62
     7
100
AcDbLine
 10
-44.4641616728226
 20
-61.86787912208999
 30
0.0
 11
-11.4641616728226
 21
-61.86787912208999
 31
0.0
  0
LINE
  5
A5
330
1F
100
AcDbEntity
  8
1
  6
Continuous
 62
     7
100
AcDbLine
 10
-44.4641616728226
 20
-61.86787912208999
 30
0.0
 11
-44.4641616728226
 21
-53.36787912208999
 31
0.0
  0
LINE
  5
A6
330
1F
100
AcDbEntity
  8
1
  6
Continuous
 62
     7
100
AcDbLine
 10
-44.4641616728226
 20
-53.36787912208999
 30
0.0
 11
-14.4641616728226
 21
-53.36787912209
 31
0.0
  0
LINE
  5
A7
330
1F
100
AcDbEntity
  8
1
  6
Continuous
 62
     7
100
AcDbLine
 10
-11.4641616728226
 20
-53.36787912209
 30
0.0
 11
-11.4641616728226
 21
-56.86787912209
 31
0.0
  0
LINE
  5
A8
330
1F
100
AcDbEntity
  8
1
  6
Continuous
 62
     7
100
AcDbLine
 10
-14.4641616728226
 20
-53.36787912209
 30
0.0
 11
-14.4641616728226
 21
-54.86787912209
 31
0.0
  0
LINE
  5
A9
330
1F
100
AcDbEntity
  8
1
  6
Continuous
 62
     7
100
AcDbLine
 10
-14.4641616728226
 20
-54.86787912209
 30
0.0
 11
-12.9641616728226
 21
-54.86787912209
 31
0.0
  0
LINE
  5
AA
330
1F
100
AcDbEntity
  8
1
  6
Continuous
 62
     7
100
AcDbLine
 10
-12.9641616728226
 20
-54.86787912209
 30
0.0
 11
-12.9641616728226
 21
-53.36787912209
 31
0.0
  0
LINE
  5
AB
330
1F
100
AcDbEntity
  8
1
  6
Continuous
 62
     7
100
AcDbLine
 10
-12.9641616728226
 20
-53.36787912209
 30
0.0
 11
-11.4641616728226
 21
-53.36787912209
 31
0.0
  0
LINE
  5
AC
330
1F
100
AcDbEntity
  8
1
  6
Continuous
 62
     7
100
AcDbLine
 10
-11.4641616728226
 20
-56.86787912209
 30
0.0
 11
-14.4641616728226
 21
-56.86787912209
 31
0.0
  0
LINE
  5
AD
330
1F
100
AcDbEntity
  8
1
  6
Continuous
 62
     7
100
AcDbLine
 10
-14.4641616728226
 20
-56.86787912209
 30
0.0
 11
-14.4641616728226
 21
-57.86787912209
 31
0.0
  0
LINE
  5
AE
330
1F
100
AcDbEntity
  8
1
  6
Continuous
 62
     7
100
AcDbLine
 10
-14.4641616728226
 20
-57.86787912209
 30
0.0
 11
-11.4641616728226
 21
-59.36787912209
 31
0.0
  0
LINE
  5
AF
330
1F
100
AcDbEntity
  8
1
  6
Continuous
 62
     7
100
AcDbLine
 10
-11.4641616728226
 20
-59.36787912209
 30
0.0
 11
-11.4641616728226
 21
-61.86787912208999
 31
0.0
  0
LINE
  5
B0
330
1F
100
AcDbEntity
  8
1
  6
Continuous
 62
     7
100
AcDbLine
 10
-8.4641616728226
 20
-37.36787912209
 30
0.0
 11
11.5358383271774
 21
-37.36787912209
 31
0.0
  0
LINE
  5
B1
330
1F
100
AcDbEntity
  8
1
  6
Continuous
 62
     7
100
AcDbLine
 10
-11.4641616728226
 20
-51.86787912209
 30
0.0
 11
-11.4641616728226
 21
-37.36787912209
 31
0.0
  0
LINE
  5
B2
330
1F
100
AcDbEntity
  8
1
  6
Continuous
 62
     7
100
AcDbLine
 10
-8.4641616728226
 20
-34.36787912209
 30
0.0
 11
-2.9641616728226
 21
-34.36787912209
 31
0.0
  0
LINE
  5
B3
330
1F
100
AcDbEntity
  8
1
  6
Continuous
 62
     7
100
AcDbLine
 10
0.0358383271774
 20
-34.36787912209
 30
0.0
 11
11.5358383271774
 21
-35.36787912209001
 31
0.0
  0
LINE
  5
B4
330
1F
100
AcDbEntity
  8
1
  6
Continuous
 62
     7
100
AcDbLine
 10
11.5358383271774
 20
-35.36787912209001
 30
0.0
 11
11.5358383271774
 21
-37.36787912209
 31
0.0
  0
LINE
  5
B5
330
1F
100
AcDbEntity
  8
1
  6
Continuous
 62
     7
100
AcDbLine
 10
-44.4641616728226
 20
-51.86787912208999
 30
0.0
 11
-11.4641616728226
 21
-51.86787912209
 31
0.0
  0
LINE
  5
B6
330
1F
100
AcDbEntity
  8
1
  6
Continuous
 62
     7
100
AcDbLine
 10
-47.4641616728226
 20
-64.86787912208999
 30
0.0
 11
-47.4641616728226
 21
-61.86787912208999
 31
0.0
  0
LINE
  5
B7
330
1F
100
AcDbEntity
  8
1
  6
Continuous
 62
     7
100
AcDbLine
 10
-47.4641616728226
 20
-54.86787912208999
 30
0.0
 11
-50.4641616728226
 21
-54.86787912208999
 31
0.0
  0
LINE
  5
B8
330
1F
100
AcDbEntity
  8
1
  6
Continuous
 62
     7
100
AcDbLine
 10
-50.4641616728226
 20
-54.86787912208999
 30
0.0
 11
-50.4641616728226
 21
-58.86787912208999
 31
0.0
  0
LINE
  5
B9
330
1F
100
AcDbEntity
  8
1
  6
Continuous
 62
     7
100
AcDbLine
 10
-52.4641616728226
 20
-62.36787912208999
 30
0.0
 11
-52.4641616728226
 21
-51.86787912208999
 31
0.0
  0
LINE
  5
BA
330
1F
100
AcDbEntity
  8
1
  6
Continuous
 62
     7
100
AcDbLine
 10
-50.4641616728226
 20
-50.36787912208999
 30
0.0
 11
-50.4641616728226
 21
-52.86787912208999
 31
0.0
  0
LINE
  5
BB
330
1F
100
AcDbEntity
  8
1
  6
Continuous
 62
     7
100
AcDbLine
 10
-50.4641616728226
 20
-52.86787912208999
 30
0.0
 11
-47.4641616728226
 21
-52.86787912208999
 31
0.0
  0
LINE
  5
BC
330
1F
100
AcDbEntity
  8
1
  6
Continuous
 62
     7
100
AcDbLine
 10
-50.9641616728226
 20
-50.36787912208999
 30
0.0
 11
-52.4641616728226
 21
-51.86787912208999
 31
0.0
  0
LINE
  5
BD
330
1F
100
AcDbEntity
  8
1
  6
Continuous
 62
     7
100
AcDbLine
 10
-50.9641616728226
 20
-50.36787912208999
 30
0.0
 11
-50.4641616728226
 21
-50.36787912208999
 31
0.0
  0
LINE
  5
BE
330
1F
100
AcDbEntity
  8
1
  6
Continuous
 62
     7
100
AcDbLine
 10
-50.9641616728226
 20
-62.36787912208999
 30
0.0
 11
-52.4641616728226
 21
-62.36787912208999
 31
0.0
  0
LINE
  5
BF
330
1F
100
AcDbEntity
  8
1
  6
Continuous
 62
     7
100
AcDbLine
 10
-49.9641616728226
 20
-61.36787912208999
 30
0.0
 11
-50.9641616728226
 21
-62.36787912208999
 31
0.0
  0
LINE
  5
C0
330
1F
100
AcDbEntity
  8
1
  6
Continuous
 62
     7
100
AcDbLine
 10
-49.9641616728226
 20
-61.36787912208999
 30
0.0
 11
-49.9641616728226
 21
-60.36787912208999
 31
0.0
  0
LINE
  5
C1
330
1F
100
AcDbEntity
  8
1
  6
Continuous
 62
     7
100
AcDbLine
 10
-49.9641616728226
 20
-60.36787912208999
 30
0.0
 11
-50.9641616728226
 21
-60.36787912208999
 31
0.0
  0
LINE
  5
C2
330
1F
100
AcDbEntity
  8
1
  6
Continuous
 62
     7
100
AcDbLine
 10
-50.9641616728226
 20
-60.36787912208999
 30
0.0
 11
-50.9641616728226
 21
-59.36787912208999
 31
0.0
  0
LINE
  5
C3
330
1F
100
AcDbEntity
  8
1
  6
Continuous
 62
     7
100
AcDbLine
 10
-50.9641616728226
 20
-59.36787912208999
 30
0.0
 11
-50.4641616728226
 21
-58.86787912208999
 31
0.0
  0
LINE
  5
C4
330
1F
100
AcDbEntity
  8
1
  6
Continuous
 62
     7
100
AcDbLine
 10
-47.4641616728226
 20
-61.86787912208999
 30
0.0
 11
-46.9641616728226
 21
-61.36787912208999
 31
0.0
  0
LINE
  5
C5
330
1F
100
AcDbEntity
  8
1
  6
Continuous
 62
     7
100
AcDbLine
 10
-46.9641616728226
 20
-61.36787912208999
 30
0.0
 11
-47.4641616728226
 21
-60.86787912208999
 31
0.0
  0
LINE
  5
C6
330
1F
100
AcDbEntity
  8
1
  6
Continuous
 62
     7
100
AcDbLine
 10
-47.4641616728226
 20
-60.86787912208999
 30
0.0
 11
-46.9641616728226
 21
-60.36787912208999
 31
0.0
  0
LINE
  5
C7
330
1F
100
AcDbEntity
  8
1
  6
Continuous
 62
     7
100
AcDbLine
 10
-46.9641616728226
 20
-60.36787912208999
 30
0.0
 11
-47.4641616728226
 21
-59.86787912208999
 31
0.0
  0
LINE
  5
C8
330
1F
100
AcDbEntity
  8
1
  6
Continuous
 62
     7
100
AcDbLine
 10
-47.4641616728226
 20
-59.86787912208999
 30
0.0
 11
-46.9641616728226
 21
-59.36787912208999
 31
0.0
  0
LINE
  5
C9
330
1F
100
AcDbEntity
  8
1
  6
Continuous
 62
     7
100
AcDbLine
 10
-46.9641616728226
 20
-59.36787912208999
 30
0.0
 11
-47.4641616728226
 21
-58.86787912208999
 31
0.0
  0
LINE
  5
CA
330
1F
100
AcDbEntity
  8
1
  6
Continuous
 62
     7
100
AcDbLine
 10
-47.4641616728226
 20
-58.86787912208999
 30
0.0
 11
-46.9641616728226
 21
-58.36787912208999
 31
0.0
  0
LINE
  5
CB
330
1F
100
AcDbEntity
  8
1
  6
Continuous
 62
     7
100
AcDbLine
 10
-46.9641616728226
 20
-58.36787912208999
 30
0.0
 11
-47.4641616728226
 21
-57.86787912208999
 31
0.0
  0
LINE
  5
CC
330
1F
100
AcDbEntity
  8
1
  6
Continuous
 62
     7
100
AcDbLine
 10
-47.4641616728226
 20
-57.86787912208999
 30
0.0
 11
-46.9641616728226
 21
-57.36787912208999
 31
0.0
  0
LINE
  5
CD
330
1F
100
AcDbEntity
  8
1
  6
Continuous
 62
     7
100
AcDbLine
 10
-46.9641616728226
 20
-57.36787912208999
 30
0.0
 11
-47.4641616728226
 21
-56.86787912208999
 31
0.0
  0
LINE
  5
CE
330
1F
100
AcDbEntity
  8
1
  6
Continuous
 62
     7
100
AcDbLine
 10
-47.4641616728226
 20
-56.86787912208999
 30
0.0
 11
-47.4641616728226
 21
-54.86787912208999
 31
0.0
  0
LINE
  5
CF
330
1F
100
AcDbEntity
  8
1
  6
Continuous
 62
     7
100
AcDbLine
 10
-47.4641616728226
 20
-2.86787912209001
 30
0.0
 11
-47.46416167282258
 21
0.13212087791001
 31
0.0
  0
LINE
  5
D0
330
1F
100
AcDbEntity
  8
1
  6
Continuous
 62
     7
100
AcDbLine
 10
-50.4641616728226
 20
-9.86787912209001
 30
0.0
 11
-47.4641616728226
 21
-9.86787912209001
 31
0.0
  0
LINE
  5
D1
330
1F
100
AcDbEntity
  8
1
  6
Continuous
 62
     7
100
AcDbLine
 10
-50.4641616728226
 20
-5.86787912209001
 30
0.0
 11
-50.4641616728226
 21
-9.86787912209001
 31
0.0
  0
LINE
  5
D2
330
1F
100
AcDbEntity
  8
1
  6
Continuous
 62
     7
100
AcDbLine
 10
-52.4641616728226
 20
-12.86787912209001
 30
0.0
 11
-52.4641616728226
 21
-2.36787912209001
 31
0.0
  0
LINE
  5
D3
330
1F
100
AcDbEntity
  8
1
  6
Continuous
 62
     7
100
AcDbLine
 10
-50.4641616728226
 20
-11.86787912209001
 30
0.0
 11
-50.4641616728226
 21
-14.36787912209001
 31
0.0
  0
LINE
  5
D4
330
1F
100
AcDbEntity
  8
1
  6
Continuous
 62
     7
100
AcDbLine
 10
-47.4641616728226
 20
-11.86787912209001
 30
0.0
 11
-50.4641616728226
 21
-11.86787912209001
 31
0.0
  0
LINE
  5
D5
330
1F
100
AcDbEntity
  8
1
  6
Continuous
 62
     7
100
AcDbLine
 10
-52.4641616728226
 20
-12.86787912209001
 30
0.0
 11
-50.9641616728226
 21
-14.36787912209001
 31
0.0
  0
LINE
  5
D6
330
1F
100
AcDbEntity
  8
1
  6
Continuous
 62
     7
100
AcDbLine
 10
-50.4641616728226
 20
-14.36787912209001
 30
0.0
 11
-50.9641616728226
 21
-14.36787912209001
 31
0.0
  0
LINE
  5
D7
330
1F
100
AcDbEntity
  8
1
  6
Continuous
 62
     7
100
AcDbLine
 10
-52.4641616728226
 20
-2.36787912209001
 30
0.0
 11
-50.9641616728226
 21
-2.36787912209001
 31
0.0
  0
LINE
  5
D8
330
1F
100
AcDbEntity
  8
1
  6
Continuous
 62
     7
100
AcDbLine
 10
-50.9641616728226
 20
-2.36787912209001
 30
0.0
 11
-49.9641616728226
 21
-3.36787912209001
 31
0.0
  0
LINE
  5
D9
330
1F
100
AcDbEntity
  8
1
  6
Continuous
 62
     7
100
AcDbLine
 10
-49.9641616728226
 20
-4.36787912209001
 30
0.0
 11
-49.9641616728226
 21
-3.36787912209001
 31
0.0
  0
LINE
  5
DA
330
1F
100
AcDbEntity
  8
1
  6
Continuous
 62
     7
100
AcDbLine
 10
-50.9641616728226
 20
-4.36787912209001
 30
0.0
 11
-49.9641616728226
 21
-4.36787912209001
 31
0.0
  0
LINE
  5
DB
330
1F
100
AcDbEntity
  8
1
  6
Continuous
 62
     7
100
AcDbLine
 10
-50.9641616728226
 20
-5.36787912209001
 30
0.0
 11
-50.9641616728226
 21
-4.36787912209001
 31
0.0
  0
LINE
  5
DC
330
1F
100
AcDbEntity
  8
1
  6
Continuous
 62
     7
100
AcDbLine
 10
-50.4641616728226
 20
-5.86787912209001
 30
0.0
 11
-50.9641616728226
 21
-5.36787912209001
 31
0.0
  0
LINE
  5
DD
330
1F
100
AcDbEntity
  8
1
  6
Continuous
 62
     7
100
AcDbLine
 10
-46.9641616728226
 20
-3.36787912209001
 30
0.0
 11
-47.4641616728226
 21
-2.86787912209001
 31
0.0
  0
LINE
  5
DE
330
1F
100
AcDbEntity
  8
1
  6
Continuous
 62
     7
100
AcDbLine
 10
-47.4641616728226
 20
-3.86787912209001
 30
0.0
 11
-46.9641616728226
 21
-3.36787912209001
 31
0.0
  0
LINE
  5
DF
330
1F
100
AcDbEntity
  8
1
  6
Continuous
 62
     7
100
AcDbLine
 10
-46.9641616728226
 20
-4.36787912209001
 30
0.0
 11
-47.4641616728226
 21
-3.86787912209001
 31
0.0
  0
LINE
  5
E0
330
1F
100
AcDbEntity
  8
1
  6
Continuous
 62
     7
100
AcDbLine
 10
-47.4641616728226
 20
-4.86787912209001
 30
0.0
 11
-46.9641616728226
 21
-4.36787912209001
 31
0.0
  0
LINE
  5
E1
330
1F
100
AcDbEntity
  8
1
  6
Continuous
 62
     7
100
AcDbLine
 10
-46.9641616728226
 20
-5.36787912209001
 30
0.0
 11
-47.4641616728226
 21
-4.86787912209001
 31
0.0
  0
LINE
  5
E2
330
1F
100
AcDbEntity
  8
1
  6
Continuous
 62
     7
100
AcDbLine
 10
-47.4641616728226
 20
-5.86787912209001
 30
0.0
 11
-46.9641616728226
 21
-5.36787912209001
 31
0.0
  0
LINE
  5
E3
330
1F
100
AcDbEntity
  8
1
  6
Continuous
 62
     7
100
AcDbLine
 10
-46.9641616728226
 20
-6.36787912209001
 30
0.0
 11
-47.4641616728226
 21
-5.86787912209001
 31
0.0
  0
LINE
  5
E4
330
1F
100
AcDbEntity
  8
1
  6
Continuous
 62
     7
100
AcDbLine
 10
-47.4641616728226
 20
-6.86787912209001
 30
0.0
 11
-46.9641616728226
 21
-6.36787912209001
 31
0.0
  0
LINE
  5
E5
330
1F
100
AcDbEntity
  8
1
  6
Continuous
 62
     7
100
AcDbLine
 10
-46.9641616728226
 20
-7.36787912209001
 30
0.0
 11
-47.4641616728226
 21
-6.86787912209001
 31
0.0
  0
LINE
  5
E6
330
1F
100
AcDbEntity
  8
1
  6
Continuous
 62
     7
100
AcDbLine
 10
-47.4641616728226
 20
-7.86787912209001
 30
0.0
 11
-46.9641616728226
 21
-7.36787912209001
 31
0.0
  0
LINE
  5
E7
330
1F
100
AcDbEntity
  8
1
  6
Continuous
 62
     7
100
AcDbLine
 10
-47.4641616728226
 20
-9.86787912209001
 30
0.0
 11
-47.4641616728226
 21
-7.86787912209001
 31
0.0
  0
LINE
  5
E8
330
1F
100
AcDbEntity
  8
1
  6
Continuous
 62
     7
100
AcDbLine
 10
-47.4641616728226
 20
-52.86787912208999
 30
0.0
 11
-47.46416167282259
 21
-33.36787912208999
 31
0.0
  0
LINE
  5
E9
330
1F
100
AcDbEntity
  8
1
  6
Continuous
 62
     7
100
AcDbLine
 10
-47.46416167282259
 20
-33.36787912208999
 30
0.0
 11
-50.4641616728226
 21
-33.36787912208999
 31
0.0
  0
LINE
  5
EA
330
1F
100
AcDbEntity
  8
1
  6
Continuous
 62
     7
100
AcDbLine
 10
-50.4641616728226
 20
-33.36787912208999
 30
0.0
 11
-50.4641616728226
 21
-35.86787912208999
 31
0.0
  0
LINE
  5
EB
330
1F
100
AcDbEntity
  8
1
  6
Continuous
 62
     7
100
AcDbLine
 10
-50.4641616728226
 20
-35.86787912208999
 30
0.0
 11
-50.9641616728226
 21
-35.86787912208999
 31
0.0
  0
LINE
  5
EC
330
1F
100
AcDbEntity
  8
1
  6
Continuous
 62
     7
100
AcDbLine
 10
-50.9641616728226
 20
-35.86787912208999
 30
0.0
 11
-52.4641616728226
 21
-34.36787912208999
 31
0.0
  0
LINE
  5
ED
330
1F
100
AcDbEntity
  8
1
  6
Continuous
 62
     7
100
AcDbLine
 10
-52.4641616728226
 20
-34.36787912208999
 30
0.0
 11
-52.4641616728226
 21
-30.36787912208999
 31
0.0
  0
LINE
  5
EE
330
1F
100
AcDbEntity
  8
1
  6
Continuous
 62
     7
100
AcDbLine
 10
-52.4641616728226
 20
-30.36787912208999
 30
0.0
 11
-50.9641616728226
 21
-28.86787912208999
 31
0.0
  0
LINE
  5
EF
330
1F
100
AcDbEntity
  8
1
  6
Continuous
 62
     7
100
AcDbLine
 10
-50.9641616728226
 20
-28.86787912208999
 30
0.0
 11
-50.4641616728226
 21
-28.86787912208999
 31
0.0
  0
LINE
  5
F0
330
1F
100
AcDbEntity
  8
1
  6
Continuous
 62
     7
100
AcDbLine
 10
-50.4641616728226
 20
-28.86787912208999
 30
0.0
 11
-50.4641616728226
 21
-31.36787912208999
 31
0.0
  0
LINE
  5
F1
330
1F
100
AcDbEntity
  8
1
  6
Continuous
 62
     7
100
AcDbLine
 10
-50.4641616728226
 20
-31.36787912208999
 30
0.0
 11
-47.46416167282259
 21
-31.36787912208999
 31
0.0
  0
LINE
  5
F2
330
1F
100
AcDbEntity
  8
1
  6
Continuous
 62
     7
100
AcDbLine
 10
-47.46416167282259
 20
-31.36787912208999
 30
0.0
 11
-47.4641616728226
 21
-11.86787912209001
 31
0.0
  0
LINE
  5
F3
330
1F
100
AcDbEntity
  8
1
  6
Continuous
 62
     7
100
AcDbLine
 10
20.89951859080708
 20
-0.63227909646852
 30
0.0
 11
24.50650342563414
 21
-13.14721402363328
 31
0.0
  0
LINE
  5
F4
330
1F
100
AcDbEntity
  8
1
  6
Continuous
 62
     7
100
AcDbLine
 10
13.71420950610926
 20
-9.36787912209
 30
0.0
 11
14.09748232639972
 21
-7.19423094442309
 31
0.0
  0
LINE
  5
F5
330
1F
100
AcDbEntity
  8
1
  6
Continuous
 62
     7
100
AcDbLine
 10
15.08229007941193
 20
-6.36787912209002
 30
0.0
 11
19.43048533004249
 21
-6.36787912209002
 31
0.0
  0
LINE
  5
F6
330
1F
100
AcDbEntity
  8
1
  6
Continuous
 62
     7
100
AcDbLine
 10
19.43048533004249
 20
-6.36787912209002
 30
0.0
 11
18.42173482551591
 21
-2.86787912209002
 31
0.0
  0
LINE
  5
F7
330
1F
100
AcDbEntity
  8
1
  6
Continuous
 62
     7
100
AcDbLine
 10
23.06517322872065
 20
-13.56262618458353
 30
0.0
 11
22.72082988527151
 21
-12.36787912209
 31
0.0
  0
LINE
  5
F8
330
1F
100
AcDbEntity
  8
1
  6
Continuous
 62
     7
100
AcDbLine
 10
15.97285895287518
 20
-12.36787912209
 30
0.0
 11
15.97285895287518
 21
-10.86787912209
 31
0.0
  0
LINE
  5
F9
330
1F
100
AcDbEntity
  8
1
  6
Continuous
 62
     7
100
AcDbLine
 10
15.97285895287518
 20
-10.86787912209
 30
0.0
 11
14.97285895287518
 21
-10.86787912209
 31
0.0
  0
LINE
  5
FA
330
1F
100
AcDbEntity
  8
1
  6
Continuous
 62
     7
100
AcDbLine
 10
14.97285895287518
 20
-10.86787912209
 30
0.0
 11
15.50183989500057
 21
-7.86787912209002
 31
0.0
  0
LINE
  5
FB
330
1F
100
AcDbEntity
  8
1
  6
Continuous
 62
     7
100
AcDbLine
 10
15.50183989500057
 20
-7.86787912209002
 30
0.0
 11
19.86280697483959
 21
-7.86787912209002
 31
0.0
  0
LINE
  5
FC
330
1F
100
AcDbEntity
  8
1
  6
Continuous
 62
     7
100
AcDbLine
 10
19.86280697483959
 20
-7.86787912209002
 30
0.0
 11
20.72745026443378
 21
-10.86787912209
 31
0.0
  0
LINE
  5
FD
330
1F
100
AcDbEntity
  8
1
  6
Continuous
 62
     7
100
AcDbLine
 10
20.72745026443378
 20
-10.86787912209
 30
0.0
 11
19.72745026443378
 21
-10.86787912209
 31
0.0
  0
LINE
  5
FE
330
1F
100
AcDbEntity
  8
1
  6
Continuous
 62
     7
100
AcDbLine
 10
19.72745026443378
 20
-10.86787912209
 30
0.0
 11
19.72745026443378
 21
-12.36787912209
 31
0.0
  0
LINE
  5
FF
330
1F
100
AcDbEntity
  8
1
  6
Continuous
 62
     7
100
AcDbLine
 10
19.72745026443378
 20
-12.36787912209
 30
0.0
 11
22.72082988527151
 21
-12.36787912209
 31
0.0
  0
LINE
  5
100
330
1F
100
AcDbEntity
  8
1
  6
Continuous
 62
     7
100
AcDbLine
 10
-47.46416167282258
 20
0.13212087791001
 30
0.0
 11
19.92766848511837
 21
0.13212087790998
 31
0.0
  0
LINE
  5
101
330
1F
100
AcDbEntity
  8
1
  6
Continuous
 62
     7
100
AcDbLine
 10
-44.4641616728226
 20
-9.36787912208999
 30
0.0
 11
-27.9641616728226
 21
-9.36787912208999
 31
0.0
  0
LINE
  5
102
330
1F
100
AcDbEntity
  8
1
  6
Continuous
 62
     7
100
AcDbLine
 10
-27.9641616728226
 20
-9.36787912208999
 30
0.0
 11
-27.9641616728226
 21
-2.86787912209002
 31
0.0
  0
LINE
  5
103
330
1F
100
AcDbEntity
  8
1
  6
Continuous
 62
     7
100
AcDbLine
 10
-27.9641616728226
 20
-2.86787912209002
 30
0.0
 11
-44.4641616728226
 21
-2.86787912209002
 31
0.0
  0
LINE
  5
104
330
1F
100
AcDbEntity
  8
1
  6
Continuous
 62
     7
100
AcDbLine
 10
-44.4641616728226
 20
-2.86787912209002
 30
0.0
 11
-44.4641616728226
 21
-9.36787912208999
 31
0.0
  0
LINE
  5
105
330
1F
100
AcDbEntity
  8
1
  6
Continuous
 62
     7
100
AcDbLine
 10
-26.4641616728226
 20
-9.36787912209
 30
0.0
 11
3.5358383271774
 21
-9.36787912209
 31
0.0
  0
LINE
  5
106
330
1F
100
AcDbEntity
  8
1
  6
Continuous
 62
     7
100
AcDbLine
 10
3.5358383271774
 20
-9.36787912209
 30
0.0
 11
3.5358383271774
 21
-2.86787912209002
 31
0.0
  0
LINE
  5
107
330
1F
100
AcDbEntity
  8
1
  6
Continuous
 62
     7
100
AcDbLine
 10
3.5358383271774
 20
-2.86787912209002
 30
0.0
 11
-26.4641616728226
 21
-2.86787912209002
 31
0.0
  0
LINE
  5
108
330
1F
100
AcDbEntity
  8
1
  6
Continuous
 62
     7
100
AcDbLine
 10
-26.4641616728226
 20
-2.86787912209002
 30
0.0
 11
-26.4641616728226
 21
-9.36787912209
 31
0.0
  0
LINE
  5
109
330
1F
100
AcDbEntity
  8
1
  6
Continuous
 62
     7
100
AcDbLine
 10
-44.4641616728226
 20
-10.86787912208999
 30
0.0
 11
-44.4641616728226
 21
-51.86787912208999
 31
0.0
  0
LINE
  5
10A
330
1F
100
AcDbEntity
  8
1
  6
Continuous
 62
     7
100
AcDbLine
 10
-44.4641616728226
 20
-10.86787912208999
 30
0.0
 11
-10.4641616728226
 21
-10.86787912208999
 31
0.0
  0
LINE
  5
10B
330
1F
100
AcDbEntity
  8
1
  6
Continuous
 62
     7
100
AcDbLine
 10
-2.9641616728226
 20
-10.86787912209001
 30
0.0
 11
-2.9641616728226
 21
-34.36787912209
 31
0.0
  0
LINE
  5
10C
330
1F
100
AcDbEntity
  8
1
  6
Continuous
 62
     7
100
AcDbLine
 10
0.0358383271774
 20
-34.36787912209
 30
0.0
 11
0.0358383271774
 21
-12.36787912209001
 31
0.0
  0
LINE
  5
10D
330
1F
100
AcDbEntity
  8
1
  6
Continuous
 62
     7
100
AcDbLine
 10
0.0358383271774
 20
-12.36787912209001
 30
0.0
 11
15.97285895287518
 21
-12.36787912209
 31
0.0
  0
LINE
  5
10E
330
1F
100
AcDbEntity
  8
1
  6
Continuous
 62
     7
100
AcDbLine
 10
18.42173482551591
 20
-2.86787912209002
 30
0.0
 11
5.0358383271774
 21
-2.86787912209002
 31
0.0
  0
LINE
  5
10F
330
1F
100
AcDbEntity
  8
1
  6
Continuous
 62
     7
100
AcDbLine
 10
5.0358383271774
 20
-2.86787912209002
 30
0.0
 11
5.0358383271774
 21
-9.36787912209001
 31
0.0
  0
LINE
  5
110
330
1F
100
AcDbEntity
  8
1
  6
Continuous
 62
     7
100
AcDbLine
 10
5.0358383271774
 20
-9.36787912209001
 30
0.0
 11
13.71420950610926
 21
-9.36787912209
 31
0.0
  0
LINE
  5
111
330
1F
100
AcDbEntity
  8
1
  6
Continuous
 62
     7
100
AcDbLine
 10
-10.4641616728226
 20
-10.86787912208999
 30
0.0
 11
-10.4641616728226
 21
-14.86787912209001
 31
0.0
  0
LINE
  5
112
330
1F
100
AcDbEntity
  8
1
  6
Continuous
 62
     7
100
AcDbLine
 10
-10.4641616728226
 20
-14.86787912209001
 30
0.0
 11
-8.9641616728226
 21
-14.86787912209001
 31
0.0
  0
LINE
  5
113
330
1F
100
AcDbEntity
  8
1
  6
Continuous
 62
     7
100
AcDbLine
 10
-8.9641616728226
 20
-14.86787912209001
 30
0.0
 11
-8.9641616728226
 21
-10.86787912208999
 31
0.0
  0
LINE
  5
114
330
1F
100
AcDbEntity
  8
1
  6
Continuous
 62
     7
100
AcDbLine
 10
-8.9641616728226
 20
-10.86787912208999
 30
0.0
 11
-2.9641616728226
 21
-10.86787912209001
 31
0.0
  0
LINE
  5
115
102
{ACAD_REACTORS
330
182
330
182
102
}
330
1F
100
AcDbEntity
  8
1
  6
Continuous
 62
     7
100
AcDbLine
 10
-41.4641616728226
 20
-51.36787912208999
 30
0.0
 11
-14.4641616728226
 21
-51.36787912208999
 31
0.0
  0
LINE
  5
116
102
{ACAD_REACTORS
330
182
330
182
102
}
330
1F
100
AcDbEntity
  8
1
  6
Continuous
 62
     7
100
AcDbLine
 10
-12.4641616728226
 20
-49.36787912208999
 30
0.0
 11
-12.4641616728226
 21
-13.36787912208999
 31
0.0
  0
LINE
  5
117
102
{ACAD_REACTORS
330
182
330
182
102
}
330
1F
100
AcDbEntity
  8
1
  6
Continuous
 62
     7
100
AcDbLine
 10
-14.4641616728226
 20
-11.36787912208999
 30
0.0
 11
-41.4641616728226
 21
-11.36787912208999
 31
0.0
  0
LINE
  5
118
102
{ACAD_REACTORS
330
182
330
182
102
}
330
1F
100
AcDbEntity
  8
1
  6
Continuous
 62
     7
100
AcDbLine
 10
-43.4641616728226
 20
-13.36787912208999
 30
0.0
 11
-43.4641616728226
 21
-49.36787912208999
 31
0.0
  0
LINE
  5
119
102
{ACAD_REACTORS
330
182
330
182
102
}
330
1F
100
AcDbEntity
  8
1
  6
Continuous
 62
     7
100
AcDbLine
 10
-41.4641616728226
 20
-49.86787912208999
 30
0.0
 11
-14.4641616728226
 21
-49.86787912208999
 31
0.0
  0
LINE
  5
11A
102
{ACAD_REACTORS
330
182
330
182
102
}
330
1F
100
AcDbEntity
  8
1
  6
Continuous
 62
     7
100
AcDbLine
 10
-13.9641616728226
 20
-49.36787912208999
 30
0.0
 11
-13.9641616728226
 21
-13.36787912208999
 31
0.0
  0
LINE
  5
11B
102
{ACAD_REACTORS
330
182
330
182
102
}
330
1F
100
AcDbEntity
  8
1
  6
Continuous
 62
     7
100
AcDbLine
 10
-14.4641616728226
 20
-12.86787912208999
 30
0.0
 11
-41.4641616728226
 21
-12.86787912208999
 31
0.0
  0
LINE
  5
11C
102
{ACAD_REACTORS
330
182
330
182
102
}
330
1F
100
AcDbEntity
  8
1
  6
Continuous
 62
     7
100
AcDbLine
 10
-41.9641616728226
 20
-13.36787912208999
 30
0.0
 11
-41.9641616728226
 21
-49.36787912208999
 31
0.0
  0
LINE
  5
11D
102
{ACAD_REACTORS
330
183
330
183
102
}
330
1F
100
AcDbEntity
  8
1
  6
Continuous
 62
     7
100
AcDbLine
 10
24.84059133984929
 20
-29.82816332023564
 30
0.0
 11
24.01974351573753
 21
-40.12953164364644
 31
0.0
  0
LINE
  5
11E
102
{ACAD_REACTORS
330
183
330
183
102
}
330
1F
100
AcDbEntity
  8
1
  6
Continuous
 62
     7
100
AcDbLine
 10
24.01974351573753
 20
-40.12953164364644
 30
0.0
 11
22.5358383271774
 21
-39.86787912209
 31
0.0
  0
LINE
  5
11F
102
{ACAD_REACTORS
330
183
330
183
102
}
330
1F
100
AcDbEntity
  8
1
  6
Continuous
 62
     7
100
AcDbLine
 10
22.5358383271774
 20
-39.86787912209
 30
0.0
 11
23.34533086229109
 21
-29.70901591467257
 31
0.0
  0
LINE
  5
120
102
{ACAD_REACTORS
330
183
330
183
102
}
330
1F
100
AcDbEntity
  8
1
  6
Continuous
 62
     7
100
AcDbLine
 10
25.33901149903537
 20
-27.86787912209
 30
0.0
 11
41.0358383271774
 21
-27.86787912209
 31
0.0
  0
LINE
  5
121
102
{ACAD_REACTORS
330
183
330
183
102
}
330
1F
100
AcDbEntity
  8
1
  6
Continuous
 62
     7
100
AcDbLine
 10
43.0358383271774
 20
-29.86787912209
 30
0.0
 11
43.0358383271774
 21
-75.36787912209
 31
0.0
  0
LINE
  5
122
102
{ACAD_REACTORS
330
183
330
183
102
}
330
1F
100
AcDbEntity
  8
1
  6
Continuous
 62
     7
100
AcDbLine
 10
41.0358383271774
 20
-77.36787912209
 30
0.0
 11
35.0358383271774
 21
-77.36787912209
 31
0.0
  0
LINE
  5
123
102
{ACAD_REACTORS
330
183
330
183
102
}
330
1F
100
AcDbEntity
  8
1
  6
Continuous
 62
     7
100
AcDbLine
 10
33.0358383271774
 20
-75.36787912209
 30
0.0
 11
33.0358383271774
 21
-67.36787912209
 31
0.0
  0
LINE
  5
124
102
{ACAD_REACTORS
330
183
330
183
102
}
330
1F
100
AcDbEntity
  8
1
  6
Continuous
 62
     7
100
AcDbLine
 10
33.0358383271774
 20
-67.36787912209
 30
0.0
 11
34.5358383271774
 21
-67.36787912209
 31
0.0
  0
LINE
  5
125
102
{ACAD_REACTORS
330
183
330
183
102
}
330
1F
100
AcDbEntity
  8
1
  6
Continuous
 62
     7
100
AcDbLine
 10
34.5358383271774
 20
-67.36787912209
 30
0.0
 11
34.5358383271774
 21
-75.86787912209
 31
0.0
  0
LINE
  5
126
102
{ACAD_REACTORS
330
183
330
183
102
}
330
1F
100
AcDbEntity
  8
1
  6
Continuous
 62
     7
100
AcDbLine
 10
35.0358383271774
 20
-75.86787912209
 30
0.0
 11
41.0358383271774
 21
-75.86787912209
 31
0.0
  0
LINE
  5
127
102
{ACAD_REACTORS
330
183
330
183
102
}
330
1F
100
AcDbEntity
  8
1
  6
Continuous
 62
     7
100
AcDbLine
 10
41.5358383271774
 20
-75.86787912209
 30
0.0
 11
41.5358383271774
 21
-29.86787912209
 31
0.0
  0
LINE
  5
128
102
{ACAD_REACTORS
330
183
330
183
102
}
330
1F
100
AcDbEntity
  8
1
  6
Continuous
 62
     7
100
AcDbLine
 10
41.0358383271774
 20
-29.36787912209
 30
0.0
 11
25.33901149903536
 21
-29.36787912209
 31
0.0
  0
LINE
  5
129
330
1F
100
AcDbEntity
  8
1
  6
Continuous
 62
     7
100
AcDbLine
 10
-28.9641616728226
 20
-64.86787912208999
 30
0.0
 11
-28.9641616728226
 21
-67.36787912208999
 31
0.0
  0
LINE
  5
12A
330
1F
100
AcDbEntity
  8
1
  6
Continuous
 62
     7
100
AcDbLine
 10
-28.9641616728226
 20
-64.86787912208999
 30
0.0
 11
-24.3641616728226
 21
-64.86787912208999
 31
0.0
  0
LINE
  5
12B
330
1F
100
AcDbEntity
  8
1
  6
Continuous
 62
     7
100
AcDbLine
 10
-28.9641616728226
 20
-67.36787912208999
 30
0.0
 11
-27.9641616728226
 21
-67.36787912208999
 31
0.0
  0
LINE
  5
12C
330
1F
100
AcDbEntity
  8
1
  6
Continuous
 62
     7
100
AcDbLine
 10
-13.9641616728226
 20
-67.36787912209
 30
0.0
 11
-13.9641616728226
 21
-64.86787912208999
 31
0.0
  0
LINE
  5
12D
330
1F
100
AcDbEntity
  8
1
  6
Continuous
 62
     7
100
AcDbLine
 10
-13.9641616728226
 20
-64.86787912208999
 30
0.0
 11
-3.4641616728226
 21
-64.86787912209
 31
0.0
  0
LINE
  5
12E
330
1F
100
AcDbEntity
  8
1
  6
Continuous
 62
     7
100
AcDbLine
 10
-27.9641616728226
 20
-67.36787912208999
 30
0.0
 11
-26.46416167282259
 21
-68.86787912209
 31
0.0
  0
LINE
  5
12F
330
1F
100
AcDbEntity
  8
1
  6
Continuous
 62
     7
100
AcDbLine
 10
-27.9641616728226
 20
-67.36787912208999
 30
0.0
 11
-25.7141616728226
 21
-67.36787912208999
 31
0.0
  0
LINE
  5
130
330
1F
100
AcDbEntity
  8
1
  6
Continuous
 62
     7
100
AcDbLine
 10
-14.9641616728226
 20
-67.36787912209
 30
0.0
 11
-16.4641616728226
 21
-68.86787912209
 31
0.0
  0
LINE
  5
131
330
1F
100
AcDbEntity
  8
1
  6
Continuous
 62
     7
100
AcDbLine
 10
-14.9641616728226
 20
-67.36787912209
 30
0.0
 11
-13.9641616728226
 21
-67.36787912209
 31
0.0
  0
LINE
  5
132
330
1F
100
AcDbEntity
  8
1
  6
Continuous
 62
     7
100
AcDbLine
 10
-26.46416167282259
 20
-68.86787912209
 30
0.0
 11
-21.4641616728226
 21
-68.86787912209
 31
0.0
  0
LINE
  5
133
330
1F
100
AcDbEntity
  8
1
  6
Continuous
 62
     7
100
AcDbLine
 10
-26.46416167282259
 20
-68.86787912209
 30
0.0
 11
-25.36804370484467
 21
-69.96399709006792
 31
0.0
  0
LINE
  5
134
330
1F
100
AcDbEntity
  8
1
  6
Continuous
 62
     7
100
AcDbLine
 10
-16.4641616728226
 20
-68.86787912209
 30
0.0
 11
-17.56027964080052
 21
-69.96399709006792
 31
0.0
  0
LINE
  5
135
330
1F
100
AcDbEntity
  8
1
  6
DOT_CENTER
 62
     2
100
AcDbLine
 10
-21.46416167282259
 20
-43.36787912209
 30
0.0
 11
-21.4641616728226
 21
-68.86787912209
 31
0.0
  0
LINE
  5
136
330
1F
100
AcDbEntity
  8
1
  6
Continuous
 62
     7
100
AcDbLine
 10
-21.4641616728226
 20
-68.86787912209
 30
0.0
 11
-16.4641616728226
 21
-68.86787912209
 31
0.0
  0
LINE
  5
137
330
1F
100
AcDbEntity
  8
1
  6
DASHED
 62
     2
100
AcDbLine
 10
-18.5641616728226
 20
-64.86787912208999
 30
0.0
 11
-18.5641616728226
 21
-65.7590117720878
 31
0.0
  0
LINE
  5
138
330
1F
100
AcDbEntity
  8
1
  6
Continuous
 62
     7
100
AcDbLine
 10
-18.5641616728226
 20
-64.86787912208999
 30
0.0
 11
-13.9641616728226
 21
-64.86787912208999
 31
0.0
  0
LINE
  5
139
330
1F
100
AcDbEntity
  8
1
  6
DASHED
 62
     2
100
AcDbLine
 10
-18.5641616728226
 20
-65.7590117720878
 30
0.0
 11
-17.2141616728226
 21
-67.36787912208999
 31
0.0
  0
LINE
  5
13A
330
1F
100
AcDbEntity
  8
1
  6
Continuous
 62
     7
100
AcDbLine
 10
-17.2141616728226
 20
-67.36787912208999
 30
0.0
 11
-14.9641616728226
 21
-67.36787912209
 31
0.0
  0
LINE
  5
13B
330
1F
100
AcDbEntity
  8
1
  6
DASHED
 62
     2
100
AcDbLine
 10
-24.3641616728226
 20
-64.86787912208999
 30
0.0
 11
-24.3641616728226
 21
-65.7590117720878
 31
0.0
  0
LINE
  5
13C
330
1F
100
AcDbEntity
  8
1
  6
Continuous
 62
     7
100
AcDbLine
 10
-24.3641616728226
 20
-64.86787912208999
 30
0.0
 11
-18.5641616728226
 21
-64.86787912208999
 31
0.0
  0
LINE
  5
13D
330
1F
100
AcDbEntity
  8
1
  6
DASHED
 62
     2
100
AcDbLine
 10
-24.3641616728226
 20
-65.7590117720878
 30
0.0
 11
-25.7141616728226
 21
-67.36787912208999
 31
0.0
  0
LINE
  5
13E
330
1F
100
AcDbEntity
  8
1
  6
Continuous
 62
     7
100
AcDbLine
 10
-25.7141616728226
 20
-67.36787912208999
 30
0.0
 11
-17.2141616728226
 21
-67.36787912208999
 31
0.0
  0
LINE
  5
13F
330
1F
100
AcDbEntity
  8
1
  6
DASHED
 62
     2
100
AcDbLine
 10
-18.5641616728226
 20
-65.7590117720878
 30
0.0
 11
-24.3641616728226
 21
-65.7590117720878
 31
0.0
  0
LINE
  5
140
330
1F
100
AcDbEntity
  8
1
  6
DOT_CENTER
 62
     2
100
AcDbLine
 10
-21.4641616728226
 20
-68.86787912209
 30
0.0
 11
-21.4641616728226
 21
-76.36787912209
 31
0.0
  0
LINE
  5
141
330
1F
100
AcDbEntity
  8
1
  6
DOT_CENTER
 62
     2
100
AcDbLine
 10
-30.2469573208832
 20
-76.36787912208999
 30
0.0
 11
-21.4641616728226
 21
-76.36787912209
 31
0.0
  0
LINE
  5
142
330
1F
100
AcDbEntity
  8
1
  6
DOT_CENTER
 62
     2
100
AcDbLine
 10
-21.4641616728226
 20
-76.36787912209
 30
0.0
 11
36.56143245208684
 21
-71.29129744180396
 31
0.0
  0
LINE
  5
143
330
1F
100
AcDbEntity
  8
1
  6
DOT_CENTER
 62
     2
100
AcDbLine
 10
-21.4641616728226
 20
-76.36787912209
 30
0.0
 11
-21.4641616728226
 21
-85.2945678638118
 31
0.0
  0
LINE
  5
144
330
1F
100
AcDbEntity
  8
1
  6
DOT_CENTER
 62
     2
100
AcDbLine
 10
-21.4641616728226
 20
-76.36787912209
 30
0.0
 11
-12.5936744448188
 21
-76.36787912208999
 31
0.0
  0
LINE
  5
145
330
1F
100
AcDbEntity
  8
1
  6
Continuous
 62
     7
100
AcDbLine
 10
-15.161198709016
 20
-72.30307188473145
 30
0.0
 11
-12.30535714056782
 21
-72.05321812266614
 31
0.0
  0
LINE
  5
146
330
1F
100
AcDbEntity
  8
1
  6
Continuous
 62
     7
100
AcDbLine
 10
26.04813873596439
 20
-68.69772202688131
 30
0.0
 11
27.29422998278685
 21
-69.09061308783713
 31
0.0
  0
LINE
  5
147
330
1F
100
AcDbEntity
  8
1
  6
Continuous
 62
     7
100
AcDbLine
 10
29.66117399668223
 20
-69.8369076687627
 30
0.0
 11
30.01855656112237
 21
-73.92180907240851
 31
0.0
  0
LINE
  5
148
330
1F
100
AcDbEntity
  8
1
  6
Continuous
 62
     7
100
AcDbLine
 10
30.01855656112237
 20
-73.92180907240851
 30
0.0
 11
27.81716443927282
 21
-75.06778127638758
 31
0.0
  0
LINE
  5
149
330
1F
100
AcDbEntity
  8
1
  6
Continuous
 62
     7
100
AcDbLine
 10
26.65822893519799
 20
-75.67108491352352
 30
0.0
 11
-11.69526694133421
 21
-79.02658100930834
 31
0.0
  0
LINE
  5
14A
330
1F
100
AcDbEntity
  8
1
  6
Continuous
 62
     7
100
AcDbLine
 10
-12.30535714056782
 20
-72.05321812266614
 30
0.0
 11
-12.26177926919399
 21
-72.55131547171203
 31
0.0
  0
LINE
  5
14B
330
1F
100
AcDbEntity
  8
1
  6
Continuous
 62
     7
100
AcDbLine
 10
-12.30535714056782
 20
-72.05321812266614
 30
0.0
 11
-11.4641616728226
 21
-71.97962305542904
 31
0.0
  0
LINE
  5
14C
330
1F
100
AcDbEntity
  8
1
  6
Continuous
 62
     7
100
AcDbLine
 10
-11.69526694133421
 20
-79.02658100930834
 30
0.0
 11
-14.55110850978239
 21
-79.27643477137366
 31
0.0
  0
LINE
  5
14D
330
1F
100
AcDbEntity
  8
1
  6
Continuous
 62
     7
100
AcDbLine
 10
26.04813873596439
 20
-68.69772202688131
 30
0.0
 11
26.65822893519799
 21
-75.67108491352352
 31
0.0
  0
LINE
  5
14E
330
1F
100
AcDbEntity
  8
1
  6
Continuous
 62
     2
100
AcDbLine
 10
-12.26177926919399
 20
-72.55131547171203
 30
0.0
 11
27.29422998278685
 21
-69.09061308783713
 31
0.0
  0
LINE
  5
14F
330
1F
100
AcDbEntity
  8
1
  6
Continuous
 62
     7
100
AcDbLine
 10
-12.26177926919399
 20
-72.55131547171203
 30
0.0
 11
-11.73884481270804
 21
-78.52848366026248
 31
0.0
  0
LINE
  5
150
330
1F
100
AcDbEntity
  8
1
  6
Continuous
 62
     7
100
AcDbLine
 10
27.29422998278685
 20
-69.09061308783713
 30
0.0
 11
29.66117399668223
 21
-69.8369076687627
 31
0.0
  0
LINE
  5
151
330
1F
100
AcDbEntity
  8
1
  6
Continuous
 62
     2
100
AcDbLine
 10
-11.73884481270804
 20
-78.52848366026248
 30
0.0
 11
27.81716443927282
 21
-75.06778127638758
 31
0.0
  0
LINE
  5
152
330
1F
100
AcDbEntity
  8
1
  6
Continuous
 62
     7
100
AcDbLine
 10
-11.73884481270804
 20
-78.52848366026248
 30
0.0
 11
-11.69526694133421
 21
-79.02658100930834
 31
0.0
  0
LINE
  5
153
330
1F
100
AcDbEntity
  8
1
  6
Continuous
 62
     7
100
AcDbLine
 10
27.81716443927282
 20
-75.06778127638758
 30
0.0
 11
26.65822893519799
 21
-75.67108491352352
 31
0.0
  0
LINE
  5
154
330
1F
100
AcDbEntity
  8
1
  6
Continuous
 62
     7
100
AcDbLine
 10
-1.88883205353163
 20
-71.14189026421708
 30
0.0
 11
-1.4641616728226
 21
-69.86787912209
 31
0.0
  0
LINE
  5
155
330
1F
100
AcDbEntity
  8
1
  6
Continuous
 62
     7
100
AcDbLine
 10
10.5358383271774
 20
-77.08161132066215
 30
0.0
 11
10.5358383271774
 21
-77.86787912209
 31
0.0
  0
ARC
  5
156
330
1F
100
AcDbEntity
  8
1
  6
Continuous
 62
     7
100
AcDbCircle
 10
47.42911349233805
 20
-12.25969120918839
 30
0.0
 40
3.89327516516064
100
AcDbArc
 50
47.9680046769202
 51
180.0
  0
ARC
  5
157
330
1F
100
AcDbEntity
  8
1
  6
Continuous
 62
     7
100
AcDbCircle
 10
47.5358383271774
 20
-12.36787912209
 30
0.0
 40
1.0
100
AcDbArc
 50
0.0
 51
180.0
  0
ARC
  5
158
330
1F
100
AcDbEntity
  8
1
  6
Continuous
 62
     7
100
AcDbCircle
 10
-21.4641616728226
 20
-76.36787912209
 30
0.0
 40
7.5
100
AcDbArc
 50
90.0
 51
121.3669777746335
  0
ARC
  5
159
330
1F
100
AcDbEntity
  8
1
  6
Continuous
 62
     7
100
AcDbCircle
 10
-21.4641616728226
 20
-76.36787912209
 30
0.0
 40
7.500000000000006
100
AcDbArc
 50
58.63302222536642
 51
90.0
  0
ARC
  5
15A
330
1F
100
AcDbEntity
  8
1
  6
Continuous
 62
     7
100
AcDbCircle
 10
-21.4641616728226
 20
-76.36787912209
 30
0.0
 40
7.500000000000006
100
AcDbArc
 50
32.81813928465389
 51
58.63302222536642
  0
ARC
  5
15B
330
1F
100
AcDbEntity
  8
1
  6
Continuous
 62
     7
100
AcDbCircle
 10
-21.4641616728226
 20
-76.36787912209
 30
0.0
 40
7.500000000000007
100
AcDbArc
 50
-22.81813928465381
 51
32.81813928465389
  0
ARC
  5
15C
330
1F
100
AcDbEntity
  8
1
  6
Continuous
 62
     7
100
AcDbCircle
 10
-21.4641616728226
 20
-76.36787912209
 30
0.0
 40
7.500000000000004
100
AcDbArc
 50
121.3669777746335
 51
-22.81813928465381
  0
ARC
  5
15D
102
{ACAD_REACTORS
330
182
330
182
102
}
330
1F
100
AcDbEntity
  8
1
  6
Continuous
 62
     7
100
AcDbCircle
 10
-14.4641616728226
 20
-13.36787912208999
 30
0.0
 40
2.0
100
AcDbArc
 50
0.0
 51
90.0
  0
ARC
  5
15E
102
{ACAD_REACTORS
330
182
330
182
102
}
330
1F
100
AcDbEntity
  8
1
  6
Continuous
 62
     7
100
AcDbCircle
 10
-41.4641616728226
 20
-13.36787912208999
 30
0.0
 40
2.0
100
AcDbArc
 50
90.0
 51
180.0
  0
ARC
  5
15F
102
{ACAD_REACTORS
330
182
330
182
102
}
330
1F
100
AcDbEntity
  8
1
  6
Continuous
 62
     7
100
AcDbCircle
 10
-41.4641616728226
 20
-49.36787912208999
 30
0.0
 40
2.0
100
AcDbArc
 50
180.0
 51
-90.0
  0
ARC
  5
160
102
{ACAD_REACTORS
330
182
330
182
102
}
330
1F
100
AcDbEntity
  8
1
  6
Continuous
 62
     7
100
AcDbCircle
 10
-14.4641616728226
 20
-49.36787912208999
 30
0.0
 40
2.0
100
AcDbArc
 50
-90.0
 51
0.0
  0
ARC
  5
161
102
{ACAD_REACTORS
330
182
330
182
102
}
330
1F
100
AcDbEntity
  8
1
  6
Continuous
 62
     7
100
AcDbCircle
 10
-14.4641616728226
 20
-49.36787912208999
 30
0.0
 40
0.5
100
AcDbArc
 50
-90.0
 51
0.0
  0
ARC
  5
162
102
{ACAD_REACTORS
330
182
330
182
102
}
330
1F
100
AcDbEntity
  8
1
  6
Continuous
 62
     7
100
AcDbCircle
 10
-41.4641616728226
 20
-49.36787912208999
 30
0.0
 40
0.5
100
AcDbArc
 50
180.0
 51
-90.0
  0
ARC
  5
163
102
{ACAD_REACTORS
330
182
330
182
102
}
330
1F
100
AcDbEntity
  8
1
  6
Continuous
 62
     7
100
AcDbCircle
 10
-14.4641616728226
 20
-13.36787912208999
 30
0.0
 40
0.5
100
AcDbArc
 50
0.0
 51
90.0
  0
ARC
  5
164
102
{ACAD_REACTORS
330
182
330
182
102
}
330
1F
100
AcDbEntity
  8
1
  6
Continuous
 62
     7
100
AcDbCircle
 10
-41.4641616728226
 20
-13.36787912208999
 30
0.0
 40
0.5
100
AcDbArc
 50
90.0
 51
180.0
  0
ARC
  5
165
102
{ACAD_REACTORS
330
183
330
183
102
}
330
1F
100
AcDbEntity
  8
1
  6
Continuous
 62
     7
100
AcDbCircle
 10
25.33901149903536
 20
-29.86787912209
 30
0.0
 40
2.0
100
AcDbArc
 50
89.9999999999998
 51
175.444104943378
  0
ARC
  5
166
102
{ACAD_REACTORS
330
183
330
183
102
}
330
1F
100
AcDbEntity
  8
1
  6
Continuous
 62
     7
100
AcDbCircle
 10
41.0358383271774
 20
-29.86787912209
 30
0.0
 40
2.0
100
AcDbArc
 50
0.0
 51
90.0
  0
ARC
  5
167
102
{ACAD_REACTORS
330
183
330
183
102
}
330
1F
100
AcDbEntity
  8
1
  6
Continuous
 62
     7
100
AcDbCircle
 10
41.0358383271774
 20
-75.36787912209
 30
0.0
 40
2.0
100
AcDbArc
 50
-90.0
 51
0.0
  0
ARC
  5
168
102
{ACAD_REACTORS
330
183
330
183
102
}
330
1F
100
AcDbEntity
  8
1
  6
Continuous
 62
     7
100
AcDbCircle
 10
35.0358383271774
 20
-75.36787912209
 30
0.0
 40
2.0
100
AcDbArc
 50
180.0
 51
-90.0
  0
ARC
  5
169
102
{ACAD_REACTORS
330
183
330
183
102
}
330
1F
100
AcDbEntity
  8
1
  6
Continuous
 62
     7
100
AcDbCircle
 10
34.7858383271774
 20
-75.61787912209
 30
0.0
 40
0.3535533905932738
100
AcDbArc
 50
-135.0
 51
-45.0
  0
ARC
  5
16A
102
{ACAD_REACTORS
330
183
330
183
102
}
330
1F
100
AcDbEntity
  8
1
  6
Continuous
 62
     7
100
AcDbCircle
 10
41.2858383271774
 20
-75.61787912209
 30
0.0
 40
0.3535533905932738
100
AcDbArc
 50
-135.0
 51
-45.0
  0
ARC
  5
16B
102
{ACAD_REACTORS
330
183
330
183
102
}
330
1F
100
AcDbEntity
  8
1
  6
Continuous
 62
     7
100
AcDbCircle
 10
41.0358383271774
 20
-29.86787912209
 30
0.0
 40
0.5
100
AcDbArc
 50
0.0
 51
90.0
  0
ARC
  5
16C
330
1F
100
AcDbEntity
  8
1
  6
Continuous
 62
     7
100
AcDbCircle
 10
4.0358383271774
 20
-77.36787912209
 30
0.0
 40
0.5000000000000024
100
AcDbArc
 50
-140.7595098766047
 51
-90.0
  0
ARC
  5
16D
330
1F
100
AcDbEntity
  8
1
  6
Continuous
 62
     7
100
AcDbCircle
 10
8.0358383271774
 20
-77.36787912209
 30
0.0
 40
0.5
100
AcDbArc
 50
-90.0
 51
0.0
  0
ARC
  5
16E
330
1F
100
AcDbEntity
  8
1
  6
Continuous
 62
     7
100
AcDbCircle
 10
25.13466673814008
 20
-56.36787912209
 30
0.0
 40
1.500000000000003
100
AcDbArc
 50
-51.34019174590976
 51
51.34019174590976
  0
ARC
  5
16F
330
1F
100
AcDbEntity
  8
1
  6
Continuous
 62
     7
100
AcDbCircle
 10
19.5358383271774
 20
-64.36787912209
 30
0.0
 40
3.0
100
AcDbArc
 50
-90.0
 51
0.0
  0
ARC
  5
170
330
1F
100
AcDbEntity
  8
1
  6
Continuous
 62
     7
100
AcDbCircle
 10
21.0358383271774
 20
-46.73390452587444
 30
0.0
 40
1.5
100
AcDbArc
 50
0.0
 51
59.99999999999986
  0
ARC
  5
171
330
1F
100
AcDbEntity
  8
1
  6
Continuous
 62
     7
100
AcDbCircle
 10
21.0358383271774
 20
-40.92450344911594
 30
0.0
 40
1.5
100
AcDbArc
 50
-60.00000000000001
 51
0.0
  0
ARC
  5
172
330
1F
100
AcDbEntity
  8
1
  6
Continuous
 62
     7
100
AcDbCircle
 10
19.5358383271774
 20
-16.36787912209
 30
0.0
 40
3.0
100
AcDbArc
 50
180.0
 51
-90.0
  0
ARC
  5
173
330
1F
100
AcDbEntity
  8
1
  6
Continuous
 62
     7
100
AcDbCircle
 10
36.32237934816829
 20
-0.86787912209001
 30
0.0
 40
1.0
100
AcDbArc
 50
90.0
 51
166.3730051401085
  0
ARC
  5
174
330
1F
100
AcDbEntity
  8
1
  6
Continuous
 62
     7
100
AcDbCircle
 10
66.92766848511837
 20
-0.86787912209002
 30
0.0
 40
0.9999999999999974
100
AcDbArc
 50
13.62699485989159
 51
90.0
  0
ARC
  5
175
330
1F
100
AcDbEntity
  8
1
  6
Continuous
 62
     7
100
AcDbCircle
 10
32.3223793481683
 20
-17.36787912209
 30
0.0
 40
2.0
100
AcDbArc
 50
-90.0
 51
-13.62699485989156
  0
ARC
  5
176
330
1F
100
AcDbEntity
  8
1
  6
Continuous
 62
     7
100
AcDbCircle
 10
46.5358383271774
 20
-35.86787912209002
 30
0.0
 40
3.0
100
AcDbArc
 50
180.0
 51
-90.0
  0
ARC
  5
177
330
1F
100
AcDbEntity
  8
1
  6
Continuous
 62
     7
100
AcDbCircle
 10
46.5358383271774
 20
-53.86787912209002
 30
0.0
 40
3.0
100
AcDbArc
 50
90.0
 51
180.0
  0
ARC
  5
178
330
1F
100
AcDbEntity
  8
1
  6
Continuous
 62
     7
100
AcDbCircle
 10
62.08229007941193
 20
-7.36787912209002
 30
0.0
 40
1.0
100
AcDbArc
 50
90.0
 51
170.0
  0
ARC
  5
179
330
1F
100
AcDbEntity
  8
1
  6
Continuous
 62
     7
100
AcDbCircle
 10
70.7858383271774
 20
-13.3549201041084
 30
0.0
 40
0.7499999999999998
100
AcDbArc
 50
-73.92225517967438
 51
16.07774482032575
  0
ARC
  5
17A
330
1F
100
AcDbEntity
  8
1
  6
Continuous
 62
     7
100
AcDbCircle
 10
70.7858383271774
 20
-13.3549201041084
 30
0.0
 40
0.7500000000000112
100
AcDbArc
 50
-163.9222551796738
 51
-73.92225517967438
  0
ARC
  5
17B
330
1F
100
AcDbEntity
  8
1
  6
Continuous
 62
     7
100
AcDbCircle
 10
-8.4641616728226
 20
-37.36787912209
 30
0.0
 40
3.0
100
AcDbArc
 50
90.00000000000004
 51
180.0
  0
ARC
  5
17C
330
1F
100
AcDbEntity
  8
1
  6
Continuous
 62
     7
100
AcDbCircle
 10
30.74929730618652
 20
-15.36787912209
 30
0.0
 40
0.9999999999999982
100
AcDbArc
 50
-90.0
 51
-13.62699485989181
  0
ARC
  5
17D
330
1F
100
AcDbEntity
  8
1
  6
Continuous
 62
     7
100
AcDbCircle
 10
19.92766848511837
 20
-0.86787912209002
 30
0.0
 40
1.000000000000004
100
AcDbArc
 50
13.62699485989149
 51
90.0
  0
ARC
  5
17E
330
1F
100
AcDbEntity
  8
1
  6
Continuous
 62
     7
100
AcDbCircle
 10
15.08229007941193
 20
-7.36787912209002
 30
0.0
 40
1.0
100
AcDbArc
 50
90.0
 51
170.0
  0
ARC
  5
17F
330
1F
100
AcDbEntity
  8
1
  6
Continuous
 62
     7
100
AcDbCircle
 10
23.7858383271774
 20
-13.3549201041084
 30
0.0
 40
0.7499999999999998
100
AcDbArc
 50
-73.92225517967438
 51
16.07774482032567
  0
ARC
  5
180
330
1F
100
AcDbEntity
  8
1
  6
Continuous
 62
     7
100
AcDbCircle
 10
23.7858383271774
 20
-13.3549201041084
 30
0.0
 40
0.7500000000000147
100
AcDbArc
 50
-163.9222551796738
 51
-73.92225517967438
  0
ARC
  5
181
102
{ACAD_REACTORS
330
183
330
183
102
}
330
1F
100
AcDbEntity
  8
1
  6
Continuous
 62
     7
100
AcDbCircle
 10
25.33901149903536
 20
-29.86787912209
 30
0.0
 40
0.5
100
AcDbArc
 50
90.0
 51
175.4441049433777
  0
HATCH
  5
182
330
1F
100
AcDbEntity
  8
1
  6
Continuous
 62
     3
100
AcDbHatch
 10
0.0
 20
0.0
 30
0.0
210
0.0
220
0.0
230
1.0
  2
SOLID
 70
     1
 71
     1
 91
        2
 92
        1
 93
        8
 72
     1
 10
-14.4641616728226
 20
-11.36787912208999
 11
-41.4641616728226
 21
-11.36787912208999
 72
     2
 10
-41.4641616728226
 20
-13.36787912208999
 40
2.0
 50
90.0
 51
180.0
 73
     1
 72
     1
 10
-43.4641616728226
 20
-13.36787912208999
 11
-43.4641616728226
 21
-49.36787912208999
 72
     2
 10
-41.4641616728226
 20
-49.36787912208999
 40
2.0
 50
180.0
 51
270.0
 73
     1
 72
     1
 10
-41.4641616728226
 20
-51.36787912208999
 11
-14.4641616728226
 21
-51.36787912208999
 72
     2
 10
-14.4641616728226
 20
-49.36787912208999
 40
2.0
 50
270.0
 51
360.0
 73
     1
 72
     1
 10
-12.4641616728226
 20
-49.36787912208999
 11
-12.4641616728226
 21
-13.36787912208999
 72
     2
 10
-14.4641616728226
 20
-13.36787912208999
 40
2.0
 50
0.0
 51
90.0
 73
     1
 97
        8
330
117
330
15E
330
118
330
15F
330
115
330
160
330
116
330
15D
 92
       16
 93
        8
 72
     2
 10
-41.4641616728226
 20
-13.36787912208999
 40
0.5
 50
90.0
 51
180.0
 73
     1
 72
     1
 10
-41.9641616728226
 20
-13.36787912208999
 11
-41.9641616728226
 21
-49.36787912208999
 72
     2
 10
-41.4641616728226
 20
-49.36787912208999
 40
0.5
 50
180.0
 51
270.0
 73
     1
 72
     1
 10
-41.4641616728226
 20
-49.86787912208999
 11
-14.4641616728226
 21
-49.86787912208999
 72
     2
 10
-14.4641616728226
 20
-49.36787912208999
 40
0.5
 50
270.0
 51
360.0
 73
     1
 72
     1
 10
-13.9641616728226
 20
-49.36787912208999
 11
-13.9641616728226
 21
-13.36787912208999
 72
     2
 10
-14.4641616728226
 20
-13.36787912208999
 40
0.5
 50
0.0
 51
90.0
 73
     1
 72
     1
 10
-14.4641616728226
 20
-12.86787912208999
 11
-41.4641616728226
 21
-12.86787912208999
 97
        8
330
164
330
11C
330
162
330
119
330
161
330
11A
330
163
330
11B
 75
     0
 76
     1
 98
        1
 10
0.0
 20
0.0
  0
HATCH
  5
183
330
1F
100
AcDbEntity
  8
1
  6
Continuous
 62
     3
100
AcDbHatch
 10
0.0
 20
0.0
 30
0.0
210
0.0
220
0.0
230
1.0
  2
SOLID
 70
     1
 71
     1
 91
        1
 92
        1
 93
       20
 72
     1
 10
43.0358383271774
 20
-29.86787912209
 11
43.0358383271774
 21
-75.36787912209
 72
     2
 10
41.0358383271774
 20
-75.36787912209
 40
2.0
 50
0.0
 51
90.0
 73
     0
 72
     1
 10
41.0358383271774
 20
-77.36787912209
 11
35.0358383271774
 21
-77.36787912209
 72
     2
 10
35.0358383271774
 20
-75.36787912209
 40
2.0
 50
90.0
 51
180.0
 73
     0
 72
     1
 10
33.0358383271774
 20
-75.36787912209
 11
33.0358383271774
 21
-67.36787912209
 72
     1
 10
33.0358383271774
 20
-67.36787912209
 11
34.5358383271774
 21
-67.36787912209
 72
     1
 10
34.5358383271774
 20
-67.36787912209
 11
34.5358383271774
 21
-75.86787912209
 72
     2
 10
34.7858383271774
 20
-75.61787912209
 40
0.3535533905932738
 50
225.0
 51
315.0
 73
     1
 72
     1
 10
35.0358383271774
 20
-75.86787912209
 11
41.0358383271774
 21
-75.86787912209
 72
     2
 10
41.2858383271774
 20
-75.61787912209
 40
0.3535533905932738
 50
225.0
 51
315.0
 73
     1
 72
     1
 10
41.5358383271774
 20
-75.86787912209
 11
41.5358383271774
 21
-29.86787912209
 72
     2
 10
41.0358383271774
 20
-29.86787912209
 40
0.5
 50
0.0
 51
90.0
 73
     1
 72
     1
 10
41.0358383271774
 20
-29.36787912209
 11
25.33901149903536
 21
-29.36787912209
 72
     2
 10
25.33901149903536
 20
-29.86787912209
 40
0.5
 50
90.0
 51
175.4441049433777
 73
     1
 72
     1
 10
24.84059133984929
 20
-29.82816332023564
 11
24.01974351573753
 21
-40.12953164364644
 72
     1
 10
24.01974351573753
 20
-40.12953164364644
 11
22.5358383271774
 21
-39.86787912209
 72
     1
 10
22.5358383271774
 20
-39.86787912209
 11
23.34533086229109
 21
-29.70901591467257
 72
     2
 10
25.33901149903536
 20
-29.86787912209
 40
2.0
 50
184.555895056622
 51
270.0000000000002
 73
     0
 72
     1
 10
25.33901149903537
 20
-27.86787912209
 11
41.0358383271774
 21
-27.86787912209
 72
     2
 10
41.0358383271774
 20
-29.86787912209
 40
2.0
 50
270.0
 51
360.0
 73
     0
 97
       20
330
120
330
165
330
11F
330
11E
330
11D
330
181
330
128
330
16B
330
127
330
16A
330
126
330
169
330
125
330
124
330
123
330
168
330
122
330
167
330
121
330
166
 75
     0
 76
     1
 98
        1
 10
0.0
 20
0.0
  0
ENDSEC
  0
SECTION
  2
OBJECTS
  0
DICTIONARY
  5
C
330
0
100
AcDbDictionary
281
     1
  3
ACAD_GROUP
350
D
  3
ACAD_LAYOUT
350
1A
  3
ACAD_MLINESTYLE
350
17
  3
ACAD_PLOTSETTINGS
350
19
  3
ACAD_PLOTSTYLENAME
350
E
  0
DICTIONARY
  5
D
102
{ACAD_REACTORS
330
C
102
}
330
C
100
AcDbDictionary
281
     1
  0
DICTIONARY
  5
1A
102
{ACAD_REACTORS
330
C
102
}
330
C
100
AcDbDictionary
281
     1
  3
Layout1
350
1E
  3
Layout2
350
26
  3
Model
350
22
  0
DICTIONARY
  5
17
102
{ACAD_REACTORS
330
C
102
}
330
C
100
AcDbDictionary
281
     1
  3
Standard
350
18
  0
DICTIONARY
  5
19
102
{ACAD_REACTORS
330
C
102
}
330
C
100
AcDbDictionary
281
     1
  0
ACDBDICTIONARYWDFLT
  5
E
102
{ACAD_REACTORS
330
C
102
}
330
C
100
AcDbDictionary
281
     1
  3
Normal
350
F
100
AcDbDictionaryWithDefault
340
F
  0
LAYOUT
  5
1E
102
{ACAD_REACTORS
330
1A
102
}
330
1A
100
AcDbPlotSettings
  1

  2

  4

  6

 40
0.0
 41
0.0
 42
0.0
 43
0.0
 44
0.0
 45
0.0
 46
0.0
 47
0.0
 48
0.0
 49
0.0
140
0.0
141
0.0
142
1.0
143
1.0
 70
   688
 72
     0
 73
     0
 74
     5
  7

 75
    16
 76
     0
 77
     2
 78
   300
147
1.0
148
0.0
149
0.0
100
AcDbLayout
  1
Layout1
 70
     1
 71
     1
 10
0.0
 20
0.0
 11
0.0
 21
0.0
 12
0.0
 22
0.0
 32
0.0
 14
0.0
 24
0.0
 34
0.0
 15
0.0
 25
0.0
 35
0.0
146
0.0
 13
0.0
 23
0.0
 33
0.0
 16
1.0
 26
0.0
 36
0.0
 17
0.0
 27
1.0
 37
0.0
 76
     0
330
1B
  0
LAYOUT
  5
26
102
{ACAD_REACTORS
330
1A
102
}
330
1A
100
AcDbPlotSettings
  1

  2

  4

  6

 40
0.0
 41
0.0
 42
0.0
 43
0.0
 44
0.0
 45
0.0
 46
0.0
 47
0.0
 48
0.0
 49
0.0
140
0.0
141
0.0
142
1.0
143
1.0
 70
   688
 72
     0
 73
     0
 74
     5
  7

 75
    16
 76
     0
 77
     2
 78
   300
147
1.0
148
0.0
149
0.0
100
AcDbLayout
  1
Layout2
 70
     1
 71
     2
 10
0.0
 20
0.0
 11
0.0
 21
0.0
 12
0.0
 22
0.0
 32
0.0
 14
0.0
 24
0.0
 34
0.0
 15
0.0
 25
0.0
 35
0.0
146
0.0
 13
0.0
 23
0.0
 33
0.0
 16
1.0
 26
0.0
 36
0.0
 17
0.0
 27
1.0
 37
0.0
 76
     0
330
23
  0
LAYOUT
  5
22
102
{ACAD_REACTORS
330
1A
102
}
330
1A
100
AcDbPlotSettings
  1

  2

  4

  6

 40
0.0
 41
0.0
 42
0.0
 43
0.0
 44
0.0
 45
0.0
 46
0.0
 47
0.0
 48
0.0
 49
0.0
140
0.0
141
0.0
142
1.0
143
1.0
 70
  1712
 72
     0
 73
     0
 74
     0
  7

 75
     0
 76
     0
 77
     2
 78
   300
147
1.0
148
0.0
149
0.0
100
AcDbLayout
  1
Model
 70
     1
 71
     0
 10
0.0
 20
0.0
 11
0.0
 21
0.0
 12
0.0
 22
0.0
 32
0.0
 14
-52.4641616728226
 24
-85.2945678638118
 34
0.0
 15
71.5358383271774
 25
0.13212087791001
 35
0.0
146
0.0
 13
0.0
 23
0.0
 33
0.0
 16
1.0
 26
0.0
 36
0.0
 17
0.0
 27
1.0
 37
0.0
 76
     0
330
1F
  0
MLINESTYLE
  5
18
102
{ACAD_REACTORS
330
17
102
}
330
17
100
AcDbMlineStyle
  2
Standard
 70
     0
  3

 62
   256
 51
90.0
 52
90.0
 71
     2
 49
0.5
 62
   256
  6
BYLAYER
 49
-0.5
 62
   256
  6
BYLAYER
  0
ACDBPLACEHOLDER
  5
F
102
{ACAD_REACTORS
330
E
102
}
330
E
  0
ENDSEC
  0
EOF
