  0
SECTION
  2
HEADER
  9
$ACADVER
  1
AC1018
  9
$ACADMAINTVER
 70
     0
  9
$DWGCODEPAGE
  3
ANSI_1252
  9
$INSBASE
 10
0.0
 20
0.0
 30
0.0
  9
$EXTMIN
 10
-52.00000000000001
 20
-42.81949759965256
 30
0.0
  9
$EXTMAX
 10
72.01999999999997
 20
35.42426399999999
 30
0.0
  9
$LIMMIN
 10
0.0
 20
0.0
  9
$LIMMAX
 10
12.0
 20
9.0
  9
$ORTHOMODE
 70
     0
  9
$REGENMODE
 70
     1
  9
$FILLMODE
 70
     1
  9
$QTEXTMODE
 70
     0
  9
$MIRRTEXT
 70
     1
  9
$LTSCALE
 40
1.0
  9
$ATTMODE
 70
     1
  9
$TEXTSIZE
 40
0.2
  9
$TRACEWID
 40
0.05
  9
$TEXTSTYLE
  7
Standard
  9
$CLAYER
  8
0
  9
$CELTYPE
  6
ByLayer
  9
$CECOLOR
 62
   256
  9
$CELTSCALE
 40
1.0
  9
$DISPSILH
 70
     0
  9
$DIMSCALE
 40
1.0
  9
$DIMASZ
 40
0.18
  9
$DIMEXO
 40
0.0625
  9
$DIMDLI
 40
0.38
  9
$DIMRND
 40
0.0
  9
$DIMDLE
 40
0.0
  9
$DIMEXE
 40
0.18
  9
$DIMTP
 40
0.0
  9
$DIMTM
 40
0.0
  9
$DIMTXT
 40
0.18
  9
$DIMCEN
 40
0.09
  9
$DIMTSZ
 40
0.0
  9
$DIMTOL
 70
     0
  9
$DIMLIM
 70
     0
  9
$DIMTIH
 70
     1
  9
$DIMTOH
 70
     1
  9
$DIMSE1
 70
     0
  9
$DIMSE2
 70
     0
  9
$DIMTAD
 70
     0
  9
$DIMZIN
 70
     0
  9
$DIMBLK
  1

  9
$DIMASO
 70
     1
  9
$DIMSHO
 70
     1
  9
$DIMPOST
  1

  9
$DIMAPOST
  1

  9
$DIMALT
 70
     0
  9
$DIMALTD
 70
     2
  9
$DIMALTF
 40
25.4
  9
$DIMLFAC
 40
1.0
  9
$DIMTOFL
 70
     0
  9
$DIMTVP
 40
0.0
  9
$DIMTIX
 70
     0
  9
$DIMSOXD
 70
     0
  9
$DIMSAH
 70
     0
  9
$DIMBLK1
  1

  9
$DIMBLK2
  1

  9
$DIMSTYLE
  2
Standard
  9
$DIMCLRD
 70
     0
  9
$DIMCLRE
 70
     0
  9
$DIMCLRT
 70
     0
  9
$DIMTFAC
 40
1.0
  9
$DIMGAP
 40
0.09
  9
$DIMJUST
 70
     0
  9
$DIMSD1
 70
     0
  9
$DIMSD2
 70
     0
  9
$DIMTOLJ
 70
     1
  9
$DIMTZIN
 70
     0
  9
$DIMALTZ
 70
     0
  9
$DIMALTTZ
 70
     0
  9
$DIMUPT
 70
     0
  9
$DIMDEC
 70
     4
  9
$DIMTDEC
 70
     4
  9
$DIMALTU
 70
     2
  9
$DIMALTTD
 70
     2
  9
$DIMTXSTY
  7
Standard
  9
$DIMAUNIT
 70
     0
  9
$DIMADEC
 70
     0
  9
$DIMALTRND
 40
0.0
  9
$DIMAZIN
 70
     0
  9
$DIMDSEP
 70
    46
  9
$DIMATFIT
 70
     3
  9
$DIMFRAC
 70
     0
  9
$DIMLDRBLK
  1

  9
$DIMLUNIT
 70
     2
  9
$DIMLWD
 70
    -2
  9
$DIMLWE
 70
    -2
  9
$DIMTMOVE
 70
     0
  9
$LUNITS
 70
     2
  9
$LUPREC
 70
     4
  9
$SKETCHINC
 40
0.1
  9
$FILLETRAD
 40
0.5
  9
$AUNITS
 70
     0
  9
$AUPREC
 70
     0
  9
$MENU
  1
.
  9
$ELEVATION
 40
0.0
  9
$PELEVATION
 40
0.0
  9
$THICKNESS
 40
0.0
  9
$LIMCHECK
 70
     0
  9
$CHAMFERA
 40
0.5
  9
$CHAMFERB
 40
0.5
  9
$CHAMFERC
 40
1.0
  9
$CHAMFERD
 40
0.0
  9
$SKPOLY
 70
     0
  9
$TDCREATE
 40
2454483.378217951
  9
$TDUCREATE
 40
2454483.336551285
  9
$TDUPDATE
 40
2454483.378217963
  9
$TDUUPDATE
 40
2454483.336551297
  9
$TDINDWG
 40
0.0000000116
  9
$TDUSRTIMER
 40
0.0000000116
  9
$USRTIMER
 70
     1
  9
$ANGBASE
 50
0.0
  9
$ANGDIR
 70
     0
  9
$PDMODE
 70
     0
  9
$PDSIZE
 40
0.0
  9
$PLINEWID
 40
0.0
  9
$SPLFRAME
 70
     0
  9
$SPLINETYPE
 70
     6
  9
$SPLINESEGS
 70
     8
  9
$HANDSEED
  5
1A4
  9
$SURFTAB1
 70
     6
  9
$SURFTAB2
 70
     6
  9
$SURFTYPE
 70
     6
  9
$SURFU
 70
     6
  9
$SURFV
 70
     6
  9
$UCSBASE
  2

  9
$UCSNAME
  2

  9
$UCSORG
 10
0.0
 20
0.0
 30
0.0
  9
$UCSXDIR
 10
1.0
 20
0.0
 30
0.0
  9
$UCSYDIR
 10
0.0
 20
1.0
 30
0.0
  9
$UCSORTHOREF
  2

  9
$UCSORTHOVIEW
 70
     0
  9
$UCSORGTOP
 10
0.0
 20
0.0
 30
0.0
  9
$UCSORGBOTTOM
 10
0.0
 20
0.0
 30
0.0
  9
$UCSORGLEFT
 10
0.0
 20
0.0
 30
0.0
  9
$UCSORGRIGHT
 10
0.0
 20
0.0
 30
0.0
  9
$UCSORGFRONT
 10
0.0
 20
0.0
 30
0.0
  9
$UCSORGBACK
 10
0.0
 20
0.0
 30
0.0
  9
$PUCSBASE
  2

  9
$PUCSNAME
  2

  9
$PUCSORG
 10
0.0
 20
0.0
 30
0.0
  9
$PUCSXDIR
 10
1.0
 20
0.0
 30
0.0
  9
$PUCSYDIR
 10
0.0
 20
1.0
 30
0.0
  9
$PUCSORTHOREF
  2

  9
$PUCSORTHOVIEW
 70
     0
  9
$PUCSORGTOP
 10
0.0
 20
0.0
 30
0.0
  9
$PUCSORGBOTTOM
 10
0.0
 20
0.0
 30
0.0
  9
$PUCSORGLEFT
 10
0.0
 20
0.0
 30
0.0
  9
$PUCSORGRIGHT
 10
0.0
 20
0.0
 30
0.0
  9
$PUCSORGFRONT
 10
0.0
 20
0.0
 30
0.0
  9
$PUCSORGBACK
 10
0.0
 20
0.0
 30
0.0
  9
$USERI1
 70
     0
  9
$USERI2
 70
     0
  9
$USERI3
 70
     0
  9
$USERI4
 70
     0
  9
$USERI5
 70
     0
  9
$USERR1
 40
14.5
  9
$USERR2
 40
0.0
  9
$USERR3
 40
0.0
  9
$USERR4
 40
0.0
  9
$USERR5
 40
0.0
  9
$WORLDVIEW
 70
     1
  9
$SHADEDGE
 70
     3
  9
$SHADEDIF
 70
    70
  9
$TILEMODE
 70
     1
  9
$MAXACTVP
 70
    64
  9
$PINSBASE
 10
0.0
 20
0.0
 30
0.0
  9
$PLIMCHECK
 70
     0
  9
$PEXTMIN
 10
1.00000000000000E+20
 20
1.00000000000000E+20
 30
1.00000000000000E+20
  9
$PEXTMAX
 10
-1.00000000000000E+20
 20
-1.00000000000000E+20
 30
-1.00000000000000E+20
  9
$PLIMMIN
 10
0.0
 20
0.0
  9
$PLIMMAX
 10
12.0
 20
9.0
  9
$UNITMODE
 70
     0
  9
$VISRETAIN
 70
     1
  9
$PLINEGEN
 70
     0
  9
$PSLTSCALE
 70
     1
  9
$TREEDEPTH
 70
  3020
  9
$CMLSTYLE
  2
Standard
  9
$CMLJUST
 70
     0
  9
$CMLSCALE
 40
1.0
  9
$PROXYGRAPHICS
 70
     1
  9
$MEASUREMENT
 70
     1
  9
$CELWEIGHT
370
    -1
  9
$ENDCAPS
280
     0
  9
$JOINSTYLE
280
     0
  9
$LWDISPLAY
290
     0
  9
$INSUNITS
 70
     1
  9
$HYPERLINKBASE
  1

  9
$STYLESHEET
  1

  9
$XEDIT
290
     1
  9
$CEPSNTYPE
380
     0
  9
$PSTYLEMODE
290
     1
  9
$FINGERPRINTGUID
  2
{5244145B-2D63-4925-9052-4D429DF96D38}
  9
$VERSIONGUID
  2
{FAEB1C32-E019-11D5-929B-00C0DF256EC4}
  9
$EXTNAMES
290
     1
  9
$PSVPSCALE
 40
0.0
  9
$OLESTARTUP
290
     0
  9
$SORTENTS
280
   127
  9
$INDEXCTL
280
     0
  9
$HIDETEXT
280
     1
  9
$XCLIPFRAME
290
     0
  9
$HALOGAP
280
     0
  9
$OBSCOLOR
 70
   257
  9
$OBSLTYPE
280
     0
  9
$INTERSECTIONDISPLAY
280
     0
  9
$INTERSECTIONCOLOR
 70
   257
  9
$DIMASSOC
280
     2
  9
$PROJECTNAME
  1

  0
ENDSEC
  0
SECTION
  2
CLASSES
  0
CLASS
  1
ACDBDICTIONARYWDFLT
  2
AcDbDictionaryWithDefault
  3
ObjectDBX Classes
 90
        0
 91
        3
280
     0
281
     0
  0
CLASS
  1

  2
exOdDbCircle
  3

 90
        0
 91
        3
280
     0
281
     1
  0
ENDSEC
  0
SECTION
  2
TABLES
  0
TABLE
  2
VPORT
  5
8
330
0
100
AcDbSymbolTable
 70
     1
  0
VPORT
  5
29
330
8
100
AcDbSymbolTableRecord
100
AcDbViewportTableRecord
  2
*Active
 70
     0
 10
0.0
 20
0.0
 11
1.0
 21
1.0
 12
10.00999999999998
 22
-3.69761679982629
 13
0.0
 23
0.0
 14
0.5
 24
0.5
 15
0.5
 25
0.5
 16
0.0
 26
0.0
 36
1.0
 17
0.0
 27
0.0
 37
0.0
 40
86.0681377596178
 41
1.60267857142857
 42
50.0
 43
0.0
 44
0.0
 50
0.0
 51
0.0
 71
     0
 72
   100
 73
     1
 74
     3
 75
     0
 76
     0
 77
     0
 78
     0
281
     0
 65
     1
110
0.0
120
0.0
130
0.0
111
1.0
121
0.0
131
0.0
112
0.0
122
1.0
132
0.0
 79
     0
146
0.0
  0
ENDTAB
  0
TABLE
  2
LTYPE
  5
5
330
0
100
AcDbSymbolTable
 70
     8
  0
LTYPE
  5
14
330
5
100
AcDbSymbolTableRecord
100
AcDbLinetypeTableRecord
  2
ByBlock
 70
     0
  3

 72
    65
 73
     0
 40
0.0
  0
LTYPE
  5
15
330
5
100
AcDbSymbolTableRecord
100
AcDbLinetypeTableRecord
  2
ByLayer
 70
     0
  3

 72
    65
 73
     0
 40
0.0
  0
LTYPE
  5
16
330
5
100
AcDbSymbolTableRecord
100
AcDbLinetypeTableRecord
  2
Continuous
 70
     0
  3
Solid line
 72
    65
 73
     0
 40
0.0
  0
LTYPE
  5
2A
330
5
100
AcDbSymbolTableRecord
100
AcDbLinetypeTableRecord
  2
DASHED
 70
     0
  3
Dashed
 72
    65
 73
     2
 40
15.0
 49
7.0
 74
     0
 49
-8.0
 74
     0
  0
LTYPE
  5
2B
330
5
100
AcDbSymbolTableRecord
100
AcDbLinetypeTableRecord
  2
DOTTED
 70
     0
  3
Dotted
 72
    65
 73
     2
 40
1.0
 49
0.0
 74
     0
 49
-1.0
 74
     0
  0
LTYPE
  5
2C
330
5
100
AcDbSymbolTableRecord
100
AcDbLinetypeTableRecord
  2
DOT_CENTER
 70
     0
  3
Dot_Center
 72
    65
 73
     4
 40
14.0
 49
12.0
 74
     0
 49
-1.0
 74
     0
 49
0.0
 74
     0
 49
-1.0
 74
     0
  0
LTYPE
  5
2D
330
5
100
AcDbSymbolTableRecord
100
AcDbLinetypeTableRecord
  2
LONG_DASHED
 70
     0
  3
Long_Dashed
 72
    65
 73
     2
 40
15.0
 49
10.0
 74
     0
 49
-5.0
 74
     0
  0
LTYPE
  5
2E
330
5
100
AcDbSymbolTableRecord
100
AcDbLinetypeTableRecord
  2
DASH_CENTER
 70
     0
  3
Dash_Center
 72
    65
 73
     4
 40
14.0
 49
11.0
 74
     0
 49
-1.0
 74
     0
 49
1.0
 74
     0
 49
-1.0
 74
     0
  0
LTYPE
  5
2F
330
5
100
AcDbSymbolTableRecord
100
AcDbLinetypeTableRecord
  2
PHANTOM
 70
     0
  3
Phantom
 72
    65
 73
     6
 40
13.0
 49
10.0
 74
     0
 49
-1.0
 74
     0
 49
0.0
 74
     0
 49
-1.0
 74
     0
 49
0.0
 74
     0
 49
-1.0
 74
     0
  0
LTYPE
  5
30
330
5
100
AcDbSymbolTableRecord
100
AcDbLinetypeTableRecord
  2
CENTER_DASH_DASH
 70
     0
  3
Center_Dash_Dash
 72
    65
 73
     6
 40
14.0
 49
9.0
 74
     0
 49
-1.0
 74
     0
 49
1.0
 74
     0
 49
-1.0
 74
     0
 49
1.0
 74
     0
 49
-1.0
 74
     0
  0
ENDTAB
  0
TABLE
  2
LAYER
  5
2
330
0
100
AcDbSymbolTable
 70
     2
  0
LAYER
  5
10
330
2
100
AcDbSymbolTableRecord
100
AcDbLayerTableRecord
  2
0
 70
     0
 62
     7
  6
Continuous
370
    -3
390
F
  0
LAYER
  5
31
330
2
100
AcDbSymbolTableRecord
100
AcDbLayerTableRecord
  2
1
 70
     0
 62
     7
  6
Continuous
370
    -3
390
F
  0
ENDTAB
  0
TABLE
  2
STYLE
  5
3
330
0
100
AcDbSymbolTable
 70
     1
  0
STYLE
  5
11
330
3
100
AcDbSymbolTableRecord
100
AcDbTextStyleTableRecord
  2
Standard
 70
     0
 40
0.0
 41
1.0
 50
0.0
 71
     0
 42
0.2
  3
txt
  4

  0
ENDTAB
  0
TABLE
  2
VIEW
  5
6
330
0
100
AcDbSymbolTable
 70
     0
  0
ENDTAB
  0
TABLE
  2
UCS
  5
7
330
0
100
AcDbSymbolTable
 70
     0
  0
ENDTAB
  0
TABLE
  2
APPID
  5
9
330
0
100
AcDbSymbolTable
 70
     1
  0
APPID
  5
12
330
9
100
AcDbSymbolTableRecord
100
AcDbRegAppTableRecord
  2
ACAD
 70
     0
  0
ENDTAB
  0
TABLE
  2
DIMSTYLE
  5
A
330
0
100
AcDbSymbolTable
 70
     1
100
AcDbDimStyleTable
  0
DIMSTYLE
105
27
330
A
100
AcDbSymbolTableRecord
100
AcDbDimStyleTableRecord
  2
Standard
 70
     0
340
11
  0
ENDTAB
  0
TABLE
  2
BLOCK_RECORD
  5
1
330
0
100
AcDbSymbolTable
 70
     1
  0
BLOCK_RECORD
  5
1F
330
1
100
AcDbSymbolTableRecord
100
AcDbBlockTableRecord
  2
*Model_Space
340
22
  0
BLOCK_RECORD
  5
1B
330
1
100
AcDbSymbolTableRecord
100
AcDbBlockTableRecord
  2
*Paper_Space
340
1E
  0
BLOCK_RECORD
  5
23
330
1
100
AcDbSymbolTableRecord
100
AcDbBlockTableRecord
  2
*Paper_Space0
340
26
  0
ENDTAB
  0
ENDSEC
  0
SECTION
  2
BLOCKS
  0
BLOCK
  5
20
330
1F
100
AcDbEntity
  8
0
100
AcDbBlockBegin
  2
*Model_Space
 70
     0
 71
     0
 10
0.0
 20
0.0
 30
0.0
  3
*Model_Space
  1

  0
ENDBLK
  5
21
330
1F
100
AcDbEntity
  8
0
100
AcDbBlockEnd
  0
BLOCK
  5
1C
330
1B
100
AcDbEntity
 67
     1
  8
0
100
AcDbBlockBegin
  2
*Paper_Space
 70
     0
 71
     0
 10
0.0
 20
0.0
 30
0.0
  3
*Paper_Space
  1

  0
ENDBLK
  5
1D
330
1B
100
AcDbEntity
 67
     1
  8
0
100
AcDbBlockEnd
  0
BLOCK
  5
24
330
23
100
AcDbEntity
  8
0
100
AcDbBlockBegin
  2
*Paper_Space0
 70
     0
 71
     0
 10
0.0
 20
0.0
 30
0.0
  3
*Paper_Space0
  1

  0
ENDBLK
  5
25
330
23
100
AcDbEntity
  8
0
100
AcDbBlockEnd
  0
ENDSEC
  0
SECTION
  2
ENTITIES
  0
POINT
  5
32
330
1F
100
AcDbEntity
  8
1
 62
     3
 60
     1
100
AcDbPoint
 10
39.29999999999998
 20
-35.57573600000001
 30
0.0
  0
POINT
  5
33
330
1F
100
AcDbEntity
  8
1
 62
     3
 60
     1
100
AcDbPoint
 10
39.29999999999998
 20
-37.07573600000001
 30
0.0
  0
POINT
  5
34
330
1F
100
AcDbEntity
  8
1
 62
     3
 60
     1
100
AcDbPoint
 10
15.19999999999999
 20
0.12426399999998
 30
0.0
  0
POINT
  5
35
330
1F
100
AcDbEntity
  8
1
 62
     3
 60
     1
100
AcDbPoint
 10
13.69999999999999
 20
0.12426399999998
 30
0.0
  0
POINT
  5
36
330
1F
100
AcDbEntity
  8
1
 62
     3
 60
     1
100
AcDbPoint
 10
-20.5
 20
-34.57573600000001
 30
0.0
  0
LINE
  5
37
102
{ACAD_REACTORS
330
1A2
330
1A2
102
}
330
1F
100
AcDbEntity
  8
1
  6
Continuous
 62
     7
100
AcDbLine
 10
40.79999999999998
 20
-35.07573600000001
 30
0.0
 11
40.79999999999998
 21
2.92426399999998
 31
0.0
  0
LINE
  5
38
102
{ACAD_REACTORS
330
1A2
330
1A2
102
}
330
1F
100
AcDbEntity
  8
1
  6
Continuous
 62
     7
100
AcDbLine
 10
39.29999999999998
 20
-35.57573600000001
 30
0.0
 11
40.29999999999998
 21
-35.57573600000001
 31
0.0
  0
LINE
  5
39
102
{ACAD_REACTORS
330
1A2
330
1A2
102
}
330
1F
100
AcDbEntity
  8
1
  6
Continuous
 62
     7
100
AcDbLine
 10
39.29999999999998
 20
-37.07573600000001
 30
0.0
 11
39.29999999999998
 21
-35.57573600000001
 31
0.0
  0
LINE
  5
3A
330
1F
100
AcDbEntity
  8
0
  6
Continuous
 62
     7
100
AcDbLine
 10
39.29999999999998
 20
-37.07573600000001
 30
0.0
 11
39.29999999999998
 21
-38.07573600000001
 31
0.0
  0
LINE
  5
3B
102
{ACAD_REACTORS
330
1A2
330
1A2
102
}
330
1F
100
AcDbEntity
  8
1
  6
Continuous
 62
     7
100
AcDbLine
 10
15.19999999999999
 20
0.12426399999998
 30
0.0
 11
13.69999999999999
 21
0.12426399999998
 31
0.0
  0
LINE
  5
3C
102
{ACAD_REACTORS
330
1A2
330
1A2
102
}
330
1F
100
AcDbEntity
  8
1
  6
Continuous
 62
     7
100
AcDbLine
 10
15.19999999999999
 20
2.92426399999998
 30
0.0
 11
15.19999999999999
 21
0.12426399999998
 31
0.0
  0
LINE
  5
3D
102
{ACAD_REACTORS
330
1A2
330
1A2
102
}
330
1F
100
AcDbEntity
  8
1
  6
Continuous
 62
     7
100
AcDbLine
 10
40.29999999999998
 20
3.42426399999998
 30
0.0
 11
15.69999999999999
 21
3.42426399999998
 31
0.0
  0
LINE
  5
3E
102
{ACAD_REACTORS
330
1A2
330
1A2
102
}
330
1F
100
AcDbEntity
  8
1
  6
Continuous
 62
     7
100
AcDbLine
 10
40.29999999999998
 20
-37.07573600000001
 30
0.0
 11
39.29999999999998
 21
-37.07573600000001
 31
0.0
  0
LINE
  5
3F
102
{ACAD_REACTORS
330
1A2
330
1A2
102
}
330
1F
100
AcDbEntity
  8
1
  6
Continuous
 62
     7
100
AcDbLine
 10
42.29999999999998
 20
2.92426399999998
 30
0.0
 11
42.29999999999998
 21
-35.07573600000001
 31
0.0
  0
LINE
  5
40
102
{ACAD_REACTORS
330
1A2
330
1A2
102
}
330
1F
100
AcDbEntity
  8
1
  6
Continuous
 62
     7
100
AcDbLine
 10
15.69999999999999
 20
4.92426399999998
 30
0.0
 11
40.29999999999998
 21
4.92426399999998
 31
0.0
  0
LINE
  5
41
102
{ACAD_REACTORS
330
1A2
330
1A2
102
}
330
1F
100
AcDbEntity
  8
1
  6
Continuous
 62
     7
100
AcDbLine
 10
13.69999999999999
 20
0.12426399999998
 30
0.0
 11
13.69999999999999
 21
2.92426399999998
 31
0.0
  0
LINE
  5
42
102
{ACAD_REACTORS
330
1A3
330
1A3
102
}
330
1F
100
AcDbEntity
  8
1
  6
Continuous
 62
     7
100
AcDbLine
 10
-41.3
 20
-7.57573600000003
 30
0.0
 11
-41.3
 21
19.42426399999999
 31
0.0
  0
LINE
  5
43
102
{ACAD_REACTORS
330
1A3
330
1A3
102
}
330
1F
100
AcDbEntity
  8
1
  6
Continuous
 62
     7
100
AcDbLine
 10
-11.8
 20
-9.57573600000003
 30
0.0
 11
-39.3
 21
-9.57573600000003
 31
0.0
  0
LINE
  5
44
102
{ACAD_REACTORS
330
1A3
330
1A3
102
}
330
1F
100
AcDbEntity
  8
1
  6
Continuous
 62
     7
100
AcDbLine
 10
-9.8
 20
19.42426399999999
 30
0.0
 11
-9.8
 21
-7.57573600000003
 31
0.0
  0
LINE
  5
45
102
{ACAD_REACTORS
330
1A3
330
1A3
102
}
330
1F
100
AcDbEntity
  8
1
  6
Continuous
 62
     7
100
AcDbLine
 10
-39.3
 20
21.42426399999999
 30
0.0
 11
-11.8
 21
21.42426399999999
 31
0.0
  0
LINE
  5
46
102
{ACAD_REACTORS
330
1A3
330
1A3
102
}
330
1F
100
AcDbEntity
  8
1
  6
Continuous
 62
     7
100
AcDbLine
 10
-39.8
 20
19.42426399999999
 30
0.0
 11
-39.8
 21
-7.57573600000003
 31
0.0
  0
LINE
  5
47
102
{ACAD_REACTORS
330
1A3
330
1A3
102
}
330
1F
100
AcDbEntity
  8
1
  6
Continuous
 62
     7
100
AcDbLine
 10
-11.8
 20
19.92426399999999
 30
0.0
 11
-39.3
 21
19.92426399999999
 31
0.0
  0
LINE
  5
48
102
{ACAD_REACTORS
330
1A3
330
1A3
102
}
330
1F
100
AcDbEntity
  8
1
  6
Continuous
 62
     7
100
AcDbLine
 10
-11.3
 20
-7.57573600000003
 30
0.0
 11
-11.3
 21
19.42426399999999
 31
0.0
  0
LINE
  5
49
102
{ACAD_REACTORS
330
1A3
330
1A3
102
}
330
1F
100
AcDbEntity
  8
1
  6
Continuous
 62
     7
100
AcDbLine
 10
-39.3
 20
-8.07573600000003
 30
0.0
 11
-11.8
 21
-8.07573600000003
 31
0.0
  0
LINE
  5
4A
330
1F
100
AcDbEntity
  8
1
  6
Continuous
 62
     7
100
AcDbLine
 10
12.5
 20
-38.00032816954446
 30
0.0
 11
-9.09872733344436
 21
-38.37733535751659
 31
0.0
  0
LINE
  5
4B
330
1F
100
AcDbEntity
  8
1
  6
Continuous
 62
     7
100
AcDbLine
 10
12.5
 20
-29.99910954519319
 30
0.0
 11
29.42257513207049
 21
-29.70372489751027
 31
0.0
  0
LINE
  5
4C
330
1F
100
AcDbEntity
  8
0
  6
Continuous
 62
     7
100
AcDbLine
 10
12.5
 20
-38.00032816954446
 30
0.0
 11
12.5
 21
-38.07573600000001
 31
0.0
  0
LINE
  5
4D
330
1F
100
AcDbEntity
  8
1
  6
Continuous
 62
     7
100
AcDbLine
 10
-1.5
 20
-30.24348045418824
 30
0.0
 11
12.5
 21
-29.99910954519319
 31
0.0
  0
LINE
  5
4E
330
1F
100
AcDbEntity
  8
1
  6
Continuous
 62
     7
100
AcDbLine
 10
-7.43252043843171
 20
-30.34703298362904
 30
0.0
 11
-1.5
 21
-30.24348045418824
 31
0.0
  0
LINE
  5
4F
330
1F
100
AcDbEntity
  8
1
  6
Continuous
 62
     7
100
AcDbLine
 10
-9.09872733344436
 20
-38.37733535751659
 30
0.0
 11
-15.307495321388
 21
-38.48570980587039
 31
0.0
  0
LINE
  5
50
330
1F
100
AcDbEntity
  8
1
  6
Continuous
 62
     7
100
AcDbLine
 10
-9.79767549688898
 20
-30.38831691873972
 30
0.0
 11
-7.43252043843171
 21
-30.34703298362904
 31
0.0
  0
LINE
  5
51
330
1F
100
AcDbEntity
  8
0
  6
Continuous
 62
     7
100
AcDbLine
 10
-9.79767549688898
 20
-30.38831691873972
 30
0.0
 11
-10.0
 21
-28.07573600000002
 31
0.0
  0
LINE
  5
52
330
1F
100
AcDbEntity
  8
1
  6
Continuous
 62
     7
100
AcDbLine
 10
-15.44711457288627
 20
-30.48692824461926
 30
0.0
 11
-9.79767549688898
 21
-30.38831691873972
 31
0.0
  0
LINE
  5
53
330
1F
100
AcDbEntity
  8
1
  6
DOT_CENTER
 62
     2
100
AcDbLine
 10
-28.5937575710399
 20
-34.71701306391577
 30
0.0
 11
34.63391726869548
 21
-33.61336989432795
 31
0.0
  0
LINE
  5
54
330
1F
100
AcDbEntity
  8
1
  6
DASHED
 62
     2
100
AcDbLine
 10
-17.75
 20
-25.2881056111087
 30
0.0
 11
-23.25
 21
-25.2881056111087
 31
0.0
  0
LINE
  5
55
330
1F
100
AcDbEntity
  8
1
  6
Continuous
 62
     7
100
AcDbLine
 10
-24.75
 20
-27.07573600000001
 30
0.0
 11
-16.25
 21
-27.07573600000001
 31
0.0
  0
LINE
  5
56
330
1F
100
AcDbEntity
  8
1
  6
DASHED
 62
     2
100
AcDbLine
 10
-23.25
 20
-25.2881056111087
 30
0.0
 11
-24.75
 21
-27.07573600000001
 31
0.0
  0
LINE
  5
57
330
1F
100
AcDbEntity
  8
1
  6
DASHED
 62
     2
100
AcDbLine
 10
-23.25
 20
-24.57573600000001
 30
0.0
 11
-23.25
 21
-25.2881056111087
 31
0.0
  0
LINE
  5
58
330
1F
100
AcDbEntity
  8
1
  6
Continuous
 62
     7
100
AcDbLine
 10
-16.25
 20
-27.07573600000001
 30
0.0
 11
-14.5
 21
-27.07573600000001
 31
0.0
  0
LINE
  5
59
330
1F
100
AcDbEntity
  8
1
  6
DASHED
 62
     2
100
AcDbLine
 10
-17.75
 20
-25.2881056111087
 30
0.0
 11
-16.25
 21
-27.07573600000001
 31
0.0
  0
LINE
  5
5A
330
1F
100
AcDbEntity
  8
1
  6
DASHED
 62
     2
100
AcDbLine
 10
-17.75
 20
-24.57573600000001
 30
0.0
 11
-17.75
 21
-25.2881056111087
 31
0.0
  0
LINE
  5
5B
330
1F
100
AcDbEntity
  8
1
  6
DOT_CENTER
 62
     2
100
AcDbLine
 10
-20.5
 20
1.92426399999999
 30
0.0
 11
-20.50000000000003
 21
-42.81949759965256
 31
0.0
  0
LINE
  5
5C
330
1F
100
AcDbEntity
  8
1
  6
Continuous
 62
     7
100
AcDbLine
 10
-15.07735026918962
 20
-28.07573600000001
 30
0.0
 11
-16.07905288754986
 21
-29.81073582907467
 31
0.0
  0
LINE
  5
5D
330
1F
100
AcDbEntity
  8
1
  6
Continuous
 62
     7
100
AcDbLine
 10
-25.92264973081038
 20
-28.07573600000001
 30
0.0
 11
-15.07735026918962
 21
-28.07573600000001
 31
0.0
  0
LINE
  5
5E
330
1F
100
AcDbEntity
  8
1
  6
Continuous
 62
     7
100
AcDbLine
 10
-25.92264973081038
 20
-28.07573600000001
 30
0.0
 11
-24.92094711245017
 21
-29.81073582907467
 31
0.0
  0
LINE
  5
5F
330
1F
100
AcDbEntity
  8
1
  6
Continuous
 62
     7
100
AcDbLine
 10
-14.5
 20
-27.07573600000001
 30
0.0
 11
-15.07735026918962
 21
-28.07573600000001
 31
0.0
  0
LINE
  5
60
330
1F
100
AcDbEntity
  8
1
  6
Continuous
 62
     7
100
AcDbLine
 10
-14.5
 20
-27.07573600000001
 30
0.0
 11
-13.5
 21
-27.07573600000001
 31
0.0
  0
LINE
  5
61
330
1F
100
AcDbEntity
  8
1
  6
Continuous
 62
     7
100
AcDbLine
 10
-26.5
 20
-27.07573600000001
 30
0.0
 11
-24.75
 21
-27.07573600000001
 31
0.0
  0
LINE
  5
62
330
1F
100
AcDbEntity
  8
1
  6
Continuous
 62
     7
100
AcDbLine
 10
-26.5
 20
-27.07573600000001
 30
0.0
 11
-25.92264973081038
 21
-28.07573600000001
 31
0.0
  0
LINE
  5
63
330
1F
100
AcDbEntity
  8
1
  6
Continuous
 62
     7
100
AcDbLine
 10
-27.5
 20
-24.57573600000001
 30
0.0
 11
-27.5
 21
-27.07573600000001
 31
0.0
  0
LINE
  5
64
330
1F
100
AcDbEntity
  8
1
  6
Continuous
 62
     7
100
AcDbLine
 10
-13.5
 20
-27.07573600000001
 30
0.0
 11
-13.5
 21
-24.57573600000001
 31
0.0
  0
LINE
  5
65
330
1F
100
AcDbEntity
  8
1
  6
Continuous
 62
     7
100
AcDbLine
 10
-27.5
 20
-27.07573600000001
 30
0.0
 11
-26.5
 21
-27.07573600000001
 31
0.0
  0
LINE
  5
66
330
1F
100
AcDbEntity
  8
1
  6
DOT_CENTER
 62
     2
100
AcDbLine
 10
-28.57361143780505
 20
-34.57573600000001
 30
0.0
 11
-16.49999999999981
 21
-34.57573600000001
 31
0.0
  0
LINE
  5
67
330
1F
100
AcDbEntity
  8
1
  6
Continuous
 62
     7
100
AcDbLine
 10
31.23966980523039
 20
-36.97311938673007
 30
0.0
 11
29.5621943835687
 21
-37.7025064587614
 31
0.0
  0
LINE
  5
68
330
1F
100
AcDbEntity
  8
1
  6
Continuous
 62
     7
100
AcDbLine
 10
-11.07125652176342
 20
-30.41054735822025
 30
0.0
 11
-10.93163727026519
 21
-38.40932891947139
 31
0.0
  0
LINE
  5
69
330
1F
100
AcDbEntity
  8
1
  6
Continuous
 62
     2
100
AcDbLine
 10
-10.94385395477126
 20
-37.7094355328619
 30
0.0
 11
31.23966980523039
 21
-36.97311938673007
 31
0.0
  0
LINE
  5
6A
330
1F
100
AcDbEntity
  8
1
  6
Continuous
 62
     7
100
AcDbLine
 10
31.12448392274439
 20
-30.37412459869789
 30
0.0
 11
32.94734364716609
 21
-31.09216813972418
 31
0.0
  0
LINE
  5
6B
330
1F
100
AcDbEntity
  8
1
  6
Continuous
 62
     7
100
AcDbLine
 10
29.43479181657649
 20
-30.40361828411975
 30
0.0
 11
29.5621943835687
 21
-37.7025064587614
 31
0.0
  0
LINE
  5
6C
330
1F
100
AcDbEntity
  8
1
  6
Continuous
 62
     2
100
AcDbLine
 10
-11.05903983725733
 20
-31.11044074482973
 30
0.0
 11
31.12448392274439
 21
-30.37412459869789
 31
0.0
  0
LINE
  5
6D
330
1F
100
AcDbEntity
  8
1
  6
Continuous
 62
     7
100
AcDbLine
 10
29.42257513207049
 20
-29.70372489751027
 30
0.0
 11
29.43479181657649
 21
-30.40361828411975
 31
0.0
  0
LINE
  5
6E
330
1F
100
AcDbEntity
  8
1
  6
Continuous
 62
     7
100
AcDbLine
 10
29.5621943835687
 20
-37.7025064587614
 30
0.0
 11
12.5
 21
-38.00032816954446
 31
0.0
  0
LINE
  5
6F
330
1F
100
AcDbEntity
  8
1
  6
Continuous
 62
     7
100
AcDbLine
 10
33.03635973456778
 20
-36.19189637148652
 30
0.0
 11
31.23966980523039
 21
-36.97311938673007
 31
0.0
  0
LINE
  5
70
330
1F
100
AcDbEntity
  8
1
  6
Continuous
 62
     7
100
AcDbLine
 10
32.94734364716609
 20
-31.09216813972418
 30
0.0
 11
33.03635973456778
 21
-36.19189637148652
 31
0.0
  0
LINE
  5
71
330
1F
100
AcDbEntity
  8
1
  6
Continuous
 62
     7
100
AcDbLine
 10
29.42257513207049
 20
-29.70372489751027
 30
0.0
 11
31.12448392274439
 21
-30.37412459869789
 31
0.0
  0
LINE
  5
72
330
1F
100
AcDbEntity
  8
0
  6
Continuous
 62
     7
100
AcDbLine
 10
-10.0
 20
-24.57573600000001
 30
0.0
 11
-3.0
 21
-24.57573600000001
 31
0.0
  0
LINE
  5
73
330
1F
100
AcDbEntity
  8
0
  6
Continuous
 62
     7
100
AcDbLine
 10
53.39137299999999
 20
8.42426399999998
 30
0.0
 11
48.968683
 21
9.84640299999997
 31
0.0
  0
LINE
  5
74
330
1F
100
AcDbEntity
  8
0
  6
Continuous
 62
     7
100
AcDbLine
 10
61.51999999999998
 20
8.42426399999998
 30
0.0
 11
53.39137299999999
 21
8.42426399999998
 31
0.0
  0
LINE
  5
75
330
1F
100
AcDbEntity
  8
0
  6
Continuous
 62
     7
100
AcDbLine
 10
61.51999999999998
 20
9.92426399999998
 30
0.0
 11
61.51999999999998
 21
8.42426399999998
 31
0.0
  0
LINE
  5
76
330
1F
100
AcDbEntity
  8
0
  6
Continuous
 62
     7
100
AcDbLine
 10
66.922191
 20
12.424264
 30
0.0
 11
64.095226
 21
12.42426399999998
 31
0.0
  0
LINE
  5
77
330
1F
100
AcDbEntity
  8
0
  6
Continuous
 62
     7
100
AcDbLine
 10
72.0029629131445
 20
5.05367352255125
 30
0.0
 11
71.769689
 21
5.924264
 31
0.0
  0
LINE
  5
78
330
1F
100
AcDbEntity
  8
0
  6
Continuous
 62
     7
100
AcDbLine
 10
70.98321899999999
 20
4.99570499999999
 30
0.0
 11
71.03703708685549
 21
4.79485447744873
 31
0.0
  0
LINE
  5
79
330
1F
100
AcDbEntity
  8
0
  6
Continuous
 62
     7
100
AcDbLine
 10
70.933011
 20
5.183083
 30
0.0
 11
70.98321899999999
 21
4.99570499999999
 31
0.0
  0
LINE
  5
7A
330
1F
100
AcDbEntity
  8
0
  6
Continuous
 62
     7
100
AcDbLine
 10
69.01999999999998
 20
5.924264
 30
0.0
 11
69.967086
 21
5.924264
 31
0.0
  0
LINE
  5
7B
330
1F
100
AcDbEntity
  8
0
  6
Continuous
 62
     7
100
AcDbLine
 10
68.01999999999998
 20
7.424264
 30
0.0
 11
68.01999999999998
 21
6.924264
 31
0.0
  0
LINE
  5
7C
330
1F
100
AcDbEntity
  8
0
  6
Continuous
 62
     7
100
AcDbLine
 10
68.9147508262891
 20
9.68308304510251
 30
0.0
 11
69.51999999999998
 21
7.424264
 31
0.0
  0
LINE
  5
7D
330
1F
100
AcDbEntity
  8
0
  6
Continuous
 62
     7
100
AcDbLine
 10
64.51999999999998
 20
10.42426399999998
 30
0.0
 11
67.948825
 21
10.424264
 31
0.0
  0
LINE
  5
7E
330
1F
100
AcDbEntity
  8
0
  6
Continuous
 62
     7
100
AcDbLine
 10
63.51999999999998
 20
7.42426399999998
 30
0.0
 11
63.51999999999998
 21
9.42426399999998
 31
0.0
  0
LINE
  5
7F
330
1F
100
AcDbEntity
  8
0
  6
Continuous
 62
     7
100
AcDbLine
 10
65.01999999999998
 20
7.42426399999998
 30
0.0
 11
63.51999999999998
 21
7.42426399999998
 31
0.0
  0
LINE
  5
80
330
1F
100
AcDbEntity
  8
0
  6
Continuous
 62
     7
100
AcDbLine
 10
65.01999999999998
 20
6.92426399999998
 30
0.0
 11
65.01999999999998
 21
7.42426399999998
 31
0.0
  0
LINE
  5
81
330
1F
100
AcDbEntity
  8
0
  6
Continuous
 62
     7
100
AcDbLine
 10
64.095226
 20
12.42426399999998
 30
0.0
 11
64.01999999999998
 21
12.42426399999998
 31
0.0
  0
LINE
  5
82
330
1F
100
AcDbEntity
  8
0
  6
Continuous
 62
     7
100
AcDbLine
 10
68.01999999999998
 20
7.424264
 30
0.0
 11
69.51999999999998
 21
7.424264
 31
0.0
  0
LINE
  5
83
330
1F
100
AcDbEntity
  8
0
  6
Continuous
 62
     7
100
AcDbLine
 10
51.5
 20
-28.07573600000002
 30
0.0
 11
49.67101
 21
-28.74143400000001
 31
0.0
  0
LINE
  5
84
330
1F
100
AcDbEntity
  8
0
  6
Continuous
 62
     7
100
AcDbLine
 10
52.0
 20
-28.07573600000002
 30
0.0
 11
51.5
 21
-28.07573600000002
 31
0.0
  0
LINE
  5
85
330
1F
100
AcDbEntity
  8
0
  6
Continuous
 62
     7
100
AcDbLine
 10
52.0
 20
-32.07573600000002
 30
0.0
 11
52.0
 21
-28.07573600000002
 31
0.0
  0
LINE
  5
86
330
1F
100
AcDbEntity
  8
0
  6
Continuous
 62
     7
100
AcDbLine
 10
51.5
 20
-32.07573600000002
 30
0.0
 11
52.0
 21
-32.07573600000002
 31
0.0
  0
LINE
  5
87
330
1F
100
AcDbEntity
  8
0
  6
Continuous
 62
     7
100
AcDbLine
 10
46.64833399999999
 20
-30.77573600000003
 30
0.0
 11
51.5
 21
-32.07573600000002
 31
0.0
  0
LINE
  5
88
330
1F
100
AcDbEntity
  8
0
  6
Continuous
 62
     7
100
AcDbLine
 10
44.99999999999999
 20
-37.07573600000001
 30
0.0
 11
44.99999999999999
 21
-31.77573600000003
 31
0.0
  0
LINE
  5
89
330
1F
100
AcDbEntity
  8
0
  6
Continuous
 62
     7
100
AcDbLine
 10
49.0
 20
-38.07573600000001
 30
0.0
 11
45.99999999999999
 21
-38.07573600000001
 31
0.0
  0
LINE
  5
8A
330
1F
100
AcDbEntity
  8
0
  6
Continuous
 62
     7
100
AcDbLine
 10
50.0
 20
-36.47766000000002
 30
0.0
 11
49.99999999999999
 21
-37.07573600000001
 31
0.0
  0
LINE
  5
8B
330
1F
100
AcDbEntity
  8
0
  6
Continuous
 62
     7
100
AcDbLine
 10
51.5
 20
-36.07573600000002
 30
0.0
 11
50.0
 21
-36.47766000000002
 31
0.0
  0
LINE
  5
8C
330
1F
100
AcDbEntity
  8
0
  6
Continuous
 62
     7
100
AcDbLine
 10
52.0
 20
-36.07573600000002
 30
0.0
 11
51.5
 21
-36.07573600000002
 31
0.0
  0
LINE
  5
8D
330
1F
100
AcDbEntity
  8
0
  6
Continuous
 62
     7
100
AcDbLine
 10
52.0
 20
-40.07573600000001
 30
0.0
 11
52.0
 21
-36.07573600000002
 31
0.0
  0
LINE
  5
8E
330
1F
100
AcDbEntity
  8
0
  6
Continuous
 62
     7
100
AcDbLine
 10
-7.02998500000001
 20
-41.07573600000001
 30
0.0
 11
51.0
 21
-41.07573600000001
 31
0.0
  0
LINE
  5
8F
330
1F
100
AcDbEntity
  8
0
  6
Continuous
 62
     7
100
AcDbLine
 10
46.64833399999999
 20
-30.77573600000003
 30
0.0
 11
45.99999999999999
 21
-30.77573600000003
 31
0.0
  0
LINE
  5
90
330
1F
100
AcDbEntity
  8
0
  6
Continuous
 62
     7
100
AcDbLine
 10
49.0
 20
-1.57449100000003
 30
0.0
 11
47.14741999999998
 21
3.57846999999997
 31
0.0
  0
LINE
  5
91
330
1F
100
AcDbEntity
  8
0
  6
Continuous
 62
     7
100
AcDbLine
 10
53.0
 20
5.92426399999998
 30
0.0
 11
50.36620189610918
 21
6.76940669825459
 31
0.0
  0
LINE
  5
92
330
1F
100
AcDbEntity
  8
0
  6
Continuous
 62
     7
100
AcDbLine
 10
71.769689
 20
5.924264
 30
0.0
 11
68.68354665257809
 21
17.44190209020503
 31
0.0
  0
LINE
  5
93
330
1F
100
AcDbEntity
  8
0
  6
Continuous
 62
     7
100
AcDbLine
 10
64.01999999999998
 20
5.924264
 30
0.0
 11
53.0
 21
5.92426399999998
 31
0.0
  0
LINE
  5
94
330
1F
100
AcDbEntity
  8
0
  6
Continuous
 62
     7
100
AcDbLine
 10
66.75169499999998
 20
18.92426399999999
 30
0.0
 11
9.99999999999999
 21
18.92426399999999
 31
0.0
  0
LINE
  5
95
330
1F
100
AcDbEntity
  8
0
  6
Continuous
 62
     7
100
AcDbLine
 10
66.922191
 20
12.424264
 30
0.0
 11
65.98436799999999
 21
15.92426399999998
 31
0.0
  0
LINE
  5
96
330
1F
100
AcDbEntity
  8
0
  6
Continuous
 62
     7
100
AcDbLine
 10
46.82161199999999
 20
15.92426399999998
 30
0.0
 11
16.7
 21
15.92426399999998
 31
0.0
  0
LINE
  5
97
330
1F
100
AcDbEntity
  8
0
  6
Continuous
 62
     7
100
AcDbLine
 10
44.52104399999999
 20
5.92426399999998
 30
0.0
 11
12.69999999999999
 21
5.92426399999998
 31
0.0
  0
LINE
  5
98
330
1F
100
AcDbEntity
  8
0
  6
Continuous
 62
     7
100
AcDbLine
 10
10.58453299999999
 20
9.41706599999997
 30
0.0
 11
13.41546706685848
 21
8.93146162255595
 31
0.0
  0
LINE
  5
99
330
1F
100
AcDbEntity
  8
0
  6
Continuous
 62
     7
100
AcDbLine
 10
10.5845329331415
 20
15.93146162255595
 30
0.0
 11
13.41546699999999
 21
16.41706599999997
 31
0.0
  0
LINE
  5
9A
330
1F
100
AcDbEntity
  8
0
  6
Continuous
 62
     7
100
AcDbLine
 10
9.99999999999999
 20
18.92426399999999
 30
0.0
 11
9.99999999999999
 21
16.42426399999998
 31
0.0
  0
LINE
  5
9B
330
1F
100
AcDbEntity
  8
0
  6
Continuous
 62
     7
100
AcDbLine
 10
13.99999999999999
 20
15.92426399999998
 30
0.0
 11
13.99999999999999
 21
9.42426399999998
 31
0.0
  0
LINE
  5
9C
330
1F
100
AcDbEntity
  8
0
  6
Continuous
 62
     7
100
AcDbLine
 10
10.0
 20
8.92426399999998
 30
0.0
 11
9.99999999999999
 21
-3.57573600000002
 31
0.0
  0
LINE
  5
9D
330
1F
100
AcDbEntity
  8
0
  6
Continuous
 62
     7
100
AcDbLine
 10
48.968683
 20
9.84640299999997
 30
0.0
 11
48.32987399999999
 21
15.92426399999998
 31
0.0
  0
LINE
  5
9E
330
1F
100
AcDbEntity
  8
0
  6
Continuous
 62
     7
100
AcDbLine
 10
47.52473471693699
 20
9.23449549770631
 30
0.0
 11
46.82161199999999
 21
15.92426399999998
 31
0.0
  0
LINE
  5
9F
330
1F
100
AcDbEntity
  8
0
  6
Continuous
 62
     7
100
AcDbLine
 10
65.98436799999999
 20
15.92426399999998
 30
0.0
 11
48.32987399999999
 21
15.92426399999998
 31
0.0
  0
LINE
  5
A0
330
1F
100
AcDbEntity
  8
0
  6
Continuous
 62
     7
100
AcDbLine
 10
25.69999999999999
 20
-14.67573600000001
 30
0.0
 11
25.69999999999999
 21
-19.77573600000003
 31
0.0
  0
LINE
  5
A1
330
1F
100
AcDbEntity
  8
0
  6
Continuous
 62
     7
100
AcDbLine
 10
28.19999999999999
 20
-13.67573600000001
 30
0.0
 11
25.69999999999999
 21
-14.67573600000001
 31
0.0
  0
LINE
  5
A2
330
1F
100
AcDbEntity
  8
0
  6
Continuous
 62
     7
100
AcDbLine
 10
28.19999999999999
 20
-12.67573600000001
 30
0.0
 11
28.19999999999999
 21
-13.67573600000001
 31
0.0
  0
LINE
  5
A3
330
1F
100
AcDbEntity
  8
0
  6
Continuous
 62
     7
100
AcDbLine
 10
25.69999999999999
 20
-12.67573600000001
 30
0.0
 11
28.19999999999999
 21
-12.67573600000001
 31
0.0
  0
LINE
  5
A4
330
1F
100
AcDbEntity
  8
0
  6
Continuous
 62
     7
100
AcDbLine
 10
25.69999999999999
 20
-10.67573600000001
 30
0.0
 11
25.69999999999999
 21
-12.67573600000001
 31
0.0
  0
LINE
  5
A5
330
1F
100
AcDbEntity
  8
0
  6
Continuous
 62
     7
100
AcDbLine
 10
28.19999999999999
 20
-10.67573600000001
 30
0.0
 11
25.69999999999999
 21
-10.67573600000001
 31
0.0
  0
LINE
  5
A6
330
1F
100
AcDbEntity
  8
0
  6
Continuous
 62
     7
100
AcDbLine
 10
28.19999999999999
 20
-9.67573600000001
 30
0.0
 11
28.19999999999999
 21
-10.67573600000001
 31
0.0
  0
LINE
  5
A7
330
1F
100
AcDbEntity
  8
0
  6
Continuous
 62
     7
100
AcDbLine
 10
25.69999999999999
 20
-8.67573600000001
 30
0.0
 11
28.19999999999999
 21
-9.67573600000001
 31
0.0
  0
LINE
  5
A8
330
1F
100
AcDbEntity
  8
0
  6
Continuous
 62
     7
100
AcDbLine
 10
25.69999999999999
 20
-3.57573600000002
 30
0.0
 11
25.69999999999999
 21
-8.67573600000001
 31
0.0
  0
LINE
  5
A9
330
1F
100
AcDbEntity
  8
0
  6
Continuous
 62
     7
100
AcDbLine
 10
12.5
 20
-3.57573600000002
 30
0.0
 11
9.99999999999999
 21
-3.57573600000002
 31
0.0
  0
LINE
  5
AA
330
1F
100
AcDbEntity
  8
0
  6
Continuous
 62
     7
100
AcDbLine
 10
12.5
 20
-5.57573600000002
 30
0.0
 11
12.5
 21
-3.57573600000002
 31
0.0
  0
LINE
  5
AB
330
1F
100
AcDbEntity
  8
0
  6
Continuous
 62
     7
100
AcDbLine
 10
14.99999999999999
 20
-5.57573600000002
 30
0.0
 11
12.5
 21
-5.57573600000002
 31
0.0
  0
LINE
  5
AC
330
1F
100
AcDbEntity
  8
0
  6
Continuous
 62
     7
100
AcDbLine
 10
14.99999999999999
 20
-3.57573600000002
 30
0.0
 11
14.99999999999999
 21
-5.57573600000002
 31
0.0
  0
LINE
  5
AD
330
1F
100
AcDbEntity
  8
0
  6
Continuous
 62
     7
100
AcDbLine
 10
22.99999999999999
 20
-3.57573600000002
 30
0.0
 11
14.99999999999999
 21
-3.57573600000002
 31
0.0
  0
LINE
  5
AE
330
1F
100
AcDbEntity
  8
0
  6
Continuous
 62
     7
100
AcDbLine
 10
22.99999999999999
 20
-11.25147200000001
 30
0.0
 11
22.99999999999999
 21
-3.57573600000002
 31
0.0
  0
LINE
  5
AF
330
1F
100
AcDbEntity
  8
0
  6
Continuous
 62
     7
100
AcDbLine
 10
23.21213199999998
 20
-11.463604
 30
0.0
 11
22.99999999999999
 21
-11.25147200000001
 31
0.0
  0
LINE
  5
B0
330
1F
100
AcDbEntity
  8
0
  6
Continuous
 62
     7
100
AcDbLine
 10
22.99999999999999
 20
-12.09999999999999
 30
0.0
 11
23.21213203435599
 21
-11.887868034356
 31
0.0
  0
LINE
  5
B1
330
1F
100
AcDbEntity
  8
0
  6
Continuous
 62
     7
100
AcDbLine
 10
22.99999999999999
 20
-19.77573600000003
 30
0.0
 11
22.99999999999999
 21
-12.09999999999999
 31
0.0
  0
LINE
  5
B2
330
1F
100
AcDbEntity
  8
0
  6
Continuous
 62
     7
100
AcDbLine
 10
14.99999999999999
 20
-19.77573600000003
 30
0.0
 11
22.99999999999999
 21
-19.77573600000003
 31
0.0
  0
LINE
  5
B3
330
1F
100
AcDbEntity
  8
0
  6
Continuous
 62
     7
100
AcDbLine
 10
14.99999999999999
 20
-17.77573600000003
 30
0.0
 11
14.99999999999999
 21
-19.77573600000003
 31
0.0
  0
LINE
  5
B4
330
1F
100
AcDbEntity
  8
0
  6
Continuous
 62
     7
100
AcDbLine
 10
12.5
 20
-17.77573600000003
 30
0.0
 11
14.99999999999999
 21
-17.77573600000003
 31
0.0
  0
LINE
  5
B5
330
1F
100
AcDbEntity
  8
0
  6
Continuous
 62
     7
100
AcDbLine
 10
12.5
 20
-19.77573600000003
 30
0.0
 11
12.5
 21
-17.77573600000003
 31
0.0
  0
LINE
  5
B6
330
1F
100
AcDbEntity
  8
0
  6
Continuous
 62
     7
100
AcDbLine
 10
9.99999999999999
 20
-19.77573600000003
 30
0.0
 11
12.5
 21
-19.77573600000003
 31
0.0
  0
LINE
  5
B7
330
1F
100
AcDbEntity
  8
0
  6
Continuous
 62
     7
100
AcDbLine
 10
49.0
 20
-1.57449100000003
 30
0.0
 11
49.0
 21
-17.15147200000002
 31
0.0
  0
LINE
  5
B8
330
1F
100
AcDbEntity
  8
0
  6
Continuous
 62
     7
100
AcDbLine
 10
46.29999999999998
 20
-2.04509500000001
 30
0.0
 11
46.29999999999998
 21
-14.57573600000002
 31
0.0
  0
LINE
  5
B9
330
1F
100
AcDbEntity
  8
0
  6
Continuous
 62
     7
100
AcDbLine
 10
46.29999999999998
 20
-19.07573600000002
 30
0.0
 11
45.04999999999998
 21
-19.07573600000002
 31
0.0
  0
LINE
  5
BA
330
1F
100
AcDbEntity
  8
0
  6
Continuous
 62
     7
100
AcDbLine
 10
46.29999999999998
 20
-16.07573600000002
 30
0.0
 11
45.04999999999998
 21
-16.07573600000002
 31
0.0
  0
LINE
  5
BB
330
1F
100
AcDbEntity
  8
0
  6
Continuous
 62
     7
100
AcDbLine
 10
48.78786796564398
 20
-17.78786803435598
 30
0.0
 11
49.0
 21
-18.00000000000004
 31
0.0
  0
LINE
  5
BC
330
1F
100
AcDbEntity
  8
0
  6
Continuous
 62
     7
100
AcDbLine
 10
48.78786796564398
 20
-17.36360396564406
 30
0.0
 11
49.0
 21
-17.15147200000002
 31
0.0
  0
LINE
  5
BD
330
1F
100
AcDbEntity
  8
0
  6
Continuous
 62
     7
100
AcDbLine
 10
46.29999999999998
 20
-20.57573600000002
 30
0.0
 11
46.2999999996859
 21
-28.08791821705732
 31
0.0
  0
LINE
  5
BE
330
1F
100
AcDbEntity
  8
0
  6
Continuous
 62
     7
100
AcDbLine
 10
46.29999999999998
 20
-16.07573600000002
 30
0.0
 11
46.29999999999998
 21
-19.07573600000002
 31
0.0
  0
LINE
  5
BF
330
1F
100
AcDbEntity
  8
0
  6
Continuous
 62
     7
100
AcDbLine
 10
49.0
 20
-18.00000000000004
 30
0.0
 11
49.0
 21
-28.27158700000002
 31
0.0
  0
LINE
  5
C0
330
1F
100
AcDbEntity
  8
0
  6
Continuous
 62
     7
100
AcDbLine
 10
-1.5
 20
-29.57573600000002
 30
0.0
 11
-3.0
 21
-29.57573600000002
 31
0.0
  0
LINE
  5
C1
330
1F
100
AcDbEntity
  8
0
  6
Continuous
 62
     7
100
AcDbLine
 10
-1.5
 20
-30.24348045418824
 30
0.0
 11
-1.5
 21
-29.57573600000002
 31
0.0
  0
LINE
  5
C2
330
1F
100
AcDbEntity
  8
0
  6
Continuous
 62
     7
100
AcDbLine
 10
-7.5
 20
-29.57573600000002
 30
0.0
 11
-7.43252043843171
 21
-30.34703298362904
 31
0.0
  0
LINE
  5
C3
330
1F
100
AcDbEntity
  8
0
  6
Continuous
 62
     7
100
AcDbLine
 10
-6.0
 20
-29.57573600000002
 30
0.0
 11
-7.5
 21
-29.57573600000002
 31
0.0
  0
LINE
  5
C4
330
1F
100
AcDbEntity
  8
0
  6
Continuous
 62
     7
100
AcDbLine
 10
-10.0
 20
-28.07573600000002
 30
0.0
 11
-7.0
 21
-28.07573600000002
 31
0.0
  0
LINE
  5
C5
330
1F
100
AcDbEntity
  8
0
  6
Continuous
 62
     7
100
AcDbLine
 10
-9.02237500000001
 20
-39.25004700000003
 30
0.0
 11
-9.09872733344436
 21
-38.37733535751659
 31
0.0
  0
LINE
  5
C6
330
1F
100
AcDbEntity
  8
0
  6
Continuous
 62
     7
100
AcDbLine
 10
-3.0
 20
-29.57573600000002
 30
0.0
 11
-3.0
 21
-29.07573600000002
 31
0.0
  0
LINE
  5
C7
330
1F
100
AcDbEntity
  8
0
  6
Continuous
 62
     7
100
AcDbLine
 10
-6.0
 20
-29.07573600000002
 30
0.0
 11
-6.0
 21
-29.57573600000002
 31
0.0
  0
LINE
  5
C8
330
1F
100
AcDbEntity
  8
0
  6
Continuous
 62
     7
100
AcDbLine
 10
9.99999999999999
 20
-19.77573600000003
 30
0.0
 11
10.0
 21
-28.07573600000002
 31
0.0
  0
LINE
  5
C9
330
1F
100
AcDbEntity
  8
0
  6
Continuous
 62
     7
100
AcDbLine
 10
12.69999999999999
 20
-26.97573600000002
 30
0.0
 11
12.69999999999999
 21
-28.07573600000002
 31
0.0
  0
LINE
  5
CA
330
1F
100
AcDbEntity
  8
0
  6
Continuous
 62
     7
100
AcDbLine
 10
12.69999999999999
 20
-22.47573600000002
 30
0.0
 11
12.69999999999999
 21
-25.47573600000002
 31
0.0
  0
LINE
  5
CB
330
1F
100
AcDbEntity
  8
0
  6
Continuous
 62
     7
100
AcDbLine
 10
12.5
 20
-38.07573600000001
 30
0.0
 11
37.79999999999998
 21
-38.07573600000001
 31
0.0
  0
LINE
  5
CC
330
1F
100
AcDbEntity
  8
0
  6
Continuous
 62
     7
100
AcDbLine
 10
12.5
 20
-29.15276900000002
 30
0.0
 11
12.5
 21
-29.99910954519319
 31
0.0
  0
LINE
  5
CD
330
1F
100
AcDbEntity
  8
0
  6
Continuous
 62
     7
100
AcDbLine
 10
39.29999999999998
 20
-36.32573600000002
 30
0.0
 11
39.29999999999998
 21
-37.07573600000001
 31
0.0
  0
LINE
  5
CE
330
1F
100
AcDbEntity
  8
0
  6
Continuous
 62
     7
100
AcDbLine
 10
39.29999999999998
 20
-38.07573600000001
 30
0.0
 11
42.29999999999998
 21
-38.07573600000001
 31
0.0
  0
LINE
  5
CF
330
1F
100
AcDbEntity
  8
0
  6
Continuous
 62
     7
100
AcDbLine
 10
46.29999999999998
 20
-14.57573600000002
 30
0.0
 11
45.04999999999998
 21
-14.57573600000002
 31
0.0
  0
LINE
  5
D0
330
1F
100
AcDbEntity
  8
0
  6
Continuous
 62
     7
100
AcDbLine
 10
46.29999999999998
 20
-20.57573600000002
 30
0.0
 11
45.04999999999998
 21
-20.57573600000002
 31
0.0
  0
LINE
  5
D1
330
1F
100
AcDbEntity
  8
0
  6
Continuous
 62
     7
100
AcDbLine
 10
37.79999999999998
 20
-36.32573600000002
 30
0.0
 11
37.79999999999998
 21
-38.07573600000001
 31
0.0
  0
LINE
  5
D2
330
1F
100
AcDbEntity
  8
0
  6
Continuous
 62
     7
100
AcDbLine
 10
10.0
 20
-28.07573600000002
 30
0.0
 11
-2.0
 21
-28.07573600000002
 31
0.0
  0
LINE
  5
D3
330
1F
100
AcDbEntity
  8
0
  6
Continuous
 62
     7
100
AcDbLine
 10
16.7
 20
15.92426399999998
 30
0.0
 11
16.7
 21
7.42426399999998
 31
0.0
  0
LINE
  5
D4
330
1F
100
AcDbEntity
  8
0
  6
Continuous
 62
     7
100
AcDbLine
 10
22.99999999999999
 20
-0.87573600000002
 30
0.0
 11
12.69999999999999
 21
-0.87573600000002
 31
0.0
  0
LINE
  5
D5
330
1F
100
AcDbEntity
  8
0
  6
Continuous
 62
     7
100
AcDbLine
 10
12.69999999999999
 20
-22.47573600000002
 30
0.0
 11
22.99999999999999
 21
-22.47573600000002
 31
0.0
  0
LINE
  5
D6
330
1F
100
AcDbEntity
  8
0
  6
Continuous
 62
     7
100
AcDbLine
 10
42.29999999999998
 20
-38.07573600000001
 30
0.0
 11
42.29999999999998
 21
-31.77573600000003
 31
0.0
  0
LINE
  5
D7
330
1F
100
AcDbEntity
  8
0
  6
Continuous
 62
     7
100
AcDbLine
 10
46.29999999999998
 20
-2.04509500000001
 30
0.0
 11
44.60663299999999
 21
2.66501299999998
 31
0.0
  0
LINE
  5
D8
330
1F
100
AcDbEntity
  8
0
  6
Continuous
 62
     7
100
AcDbLine
 10
12.69999999999999
 20
5.92426399999998
 30
0.0
 11
12.69999999999999
 21
-0.87573600000002
 31
0.0
  0
LINE
  5
D9
330
1F
100
AcDbEntity
  8
0
  6
Continuous
 62
     7
100
AcDbLine
 10
12.69999999999999
 20
-26.97573600000002
 30
0.0
 11
14.45
 21
-26.97573600000002
 31
0.0
  0
LINE
  5
DA
330
1F
100
AcDbEntity
  8
0
  6
Continuous
 62
     7
100
AcDbLine
 10
12.69999999999999
 20
-25.47573600000002
 30
0.0
 11
14.45
 21
-25.47573600000002
 31
0.0
  0
LINE
  5
DB
330
1F
100
AcDbEntity
  8
0
  6
Continuous
 62
     7
100
AcDbLine
 10
45.25264788368099
 20
7.42426399999998
 30
0.0
 11
16.7
 21
7.42426399999998
 31
0.0
  0
LINE
  5
DC
330
1F
100
AcDbEntity
  8
0
  6
Continuous
 62
     7
100
AcDbLine
 10
-0.60872100000002
 20
24.92426399999999
 30
0.0
 11
-4.85883000000001
 21
26.288054
 31
0.0
  0
LINE
  5
DD
330
1F
100
AcDbEntity
  8
0
  6
Continuous
 62
     7
100
AcDbLine
 10
7.50031099999998
 20
24.92426399999999
 30
0.0
 11
-0.60872100000002
 21
24.92426399999999
 31
0.0
  0
LINE
  5
DE
330
1F
100
AcDbEntity
  8
0
  6
Continuous
 62
     7
100
AcDbLine
 10
-7.01203400000001
 20
32.42426399999999
 30
0.0
 11
-23.991426
 21
32.42426399999999
 31
0.0
  0
LINE
  5
DF
330
1F
100
AcDbEntity
  8
0
  6
Continuous
 62
     7
100
AcDbLine
 10
-5.00000000000001
 20
14.92550799999999
 30
0.0
 11
-5.0
 21
0.84852799999998
 31
0.0
  0
LINE
  5
E0
330
1F
100
AcDbEntity
  8
0
  6
Continuous
 62
     7
100
AcDbLine
 10
-28.8
 20
-13.57573600000002
 30
0.0
 11
-42.3
 21
-13.57573600000002
 31
0.0
  0
LINE
  5
E1
330
1F
100
AcDbEntity
  8
0
  6
Continuous
 62
     7
100
AcDbLine
 10
-27.30000000000001
 20
-10.32573600000002
 30
0.0
 11
-27.30000000000001
 21
-13.57573600000002
 31
0.0
  0
LINE
  5
E2
330
1F
100
AcDbEntity
  8
0
  6
Continuous
 62
     7
100
AcDbLine
 10
-25.50000000000001
 20
-15.07573600000001
 30
0.0
 11
-11.7
 21
-15.07573600000001
 31
0.0
  0
LINE
  5
E3
330
1F
100
AcDbEntity
  8
0
  6
Continuous
 62
     7
100
AcDbLine
 10
-11.7
 20
-15.07573600000001
 30
0.0
 11
-11.7
 21
-18.07573600000001
 31
0.0
  0
LINE
  5
E4
330
1F
100
AcDbEntity
  8
0
  6
Continuous
 62
     7
100
AcDbLine
 10
-7.351666
 20
-14.27573600000001
 30
0.0
 11
-8.0
 21
-14.27573600000001
 31
0.0
  0
LINE
  5
E5
330
1F
100
AcDbEntity
  8
0
  6
Continuous
 62
     7
100
AcDbLine
 10
-2.0
 20
-23.57573600000001
 30
0.0
 11
-2.0
 21
-19.57573600000001
 31
0.0
  0
LINE
  5
E6
330
1F
100
AcDbEntity
  8
0
  6
Continuous
 62
     7
100
AcDbLine
 10
-2.0
 20
-19.57573600000001
 30
0.0
 11
-2.5
 21
-19.57573600000001
 31
0.0
  0
LINE
  5
E7
330
1F
100
AcDbEntity
  8
0
  6
Continuous
 62
     7
100
AcDbLine
 10
-2.5
 20
-19.57573600000001
 30
0.0
 11
-4.0
 21
-19.97766000000001
 31
0.0
  0
LINE
  5
E8
330
1F
100
AcDbEntity
  8
0
  6
Continuous
 62
     7
100
AcDbLine
 10
-4.0
 20
-19.97766000000001
 30
0.0
 11
-4.0
 21
-20.57573600000001
 31
0.0
  0
LINE
  5
E9
330
1F
100
AcDbEntity
  8
0
  6
Continuous
 62
     7
100
AcDbLine
 10
-5.0
 20
-21.57573600000001
 30
0.0
 11
-8.0
 21
-21.57573600000001
 31
0.0
  0
LINE
  5
EA
330
1F
100
AcDbEntity
  8
0
  6
Continuous
 62
     7
100
AcDbLine
 10
-9.0
 20
-20.57573600000001
 30
0.0
 11
-9.0
 21
-15.27573600000002
 31
0.0
  0
LINE
  5
EB
330
1F
100
AcDbEntity
  8
0
  6
Continuous
 62
     7
100
AcDbLine
 10
-7.351666
 20
-14.27573600000001
 30
0.0
 11
-2.5
 21
-15.57573600000001
 31
0.0
  0
LINE
  5
EC
330
1F
100
AcDbEntity
  8
0
  6
Continuous
 62
     7
100
AcDbLine
 10
-2.5
 20
-15.57573600000001
 30
0.0
 11
-2.0
 21
-15.57573600000001
 31
0.0
  0
LINE
  5
ED
330
1F
100
AcDbEntity
  8
0
  6
Continuous
 62
     7
100
AcDbLine
 10
-2.0
 20
-15.57573600000001
 30
0.0
 11
-2.0
 21
-11.57573600000001
 31
0.0
  0
LINE
  5
EE
330
1F
100
AcDbEntity
  8
0
  6
Continuous
 62
     7
100
AcDbLine
 10
-2.0
 20
-11.57573600000001
 30
0.0
 11
-2.5
 21
-11.57573600000001
 31
0.0
  0
LINE
  5
EF
330
1F
100
AcDbEntity
  8
0
  6
Continuous
 62
     7
100
AcDbLine
 10
-2.5
 20
-11.57573600000001
 30
0.0
 11
-4.32898992833717
 21
-12.24143431039295
 31
0.0
  0
LINE
  5
F0
330
1F
100
AcDbEntity
  8
0
  6
Continuous
 62
     7
100
AcDbLine
 10
-42.3
 20
-15.07573600000001
 30
0.0
 11
-27.00000000000001
 21
-15.07573600000001
 31
0.0
  0
LINE
  5
F1
330
1F
100
AcDbEntity
  8
0
  6
Continuous
 62
     7
100
AcDbLine
 10
-11.2863353423348
 20
-13.57573599478787
 30
0.0
 11
-27.30000000000001
 21
-13.57573600000002
 31
0.0
  0
LINE
  5
F2
330
1F
100
AcDbEntity
  8
0
  6
Continuous
 62
     7
100
AcDbLine
 10
-11.7
 20
-19.57573600000001
 30
0.0
 11
-12.95
 21
-19.57573600000001
 31
0.0
  0
LINE
  5
F3
330
1F
100
AcDbEntity
  8
0
  6
Continuous
 62
     7
100
AcDbLine
 10
-12.95
 20
-18.07573600000001
 30
0.0
 11
-11.7
 21
-18.07573600000001
 31
0.0
  0
LINE
  5
F4
330
1F
100
AcDbEntity
  8
0
  6
Continuous
 62
     7
100
AcDbLine
 10
-5.50377100000001
 20
32.42426399999999
 30
0.0
 11
11.96467999999999
 21
32.42426399999999
 31
0.0
  0
LINE
  5
F5
330
1F
100
AcDbEntity
  8
0
  6
Continuous
 62
     7
100
AcDbLine
 10
-1.00000000000001
 20
22.42426399999999
 30
0.0
 11
-3.63379810389085
 21
23.26940669825461
 31
0.0
  0
LINE
  5
F6
330
1F
100
AcDbEntity
  8
0
  6
Continuous
 62
     7
100
AcDbLine
 10
-5.00000000000001
 20
14.92550799999999
 30
0.0
 11
-6.85258000000002
 21
20.07846999999999
 31
0.0
  0
LINE
  5
F7
330
1F
100
AcDbEntity
  8
0
  6
Continuous
 62
     7
100
AcDbLine
 10
-6.31548524743333
 20
25.79704691291043
 30
0.0
 11
-7.01203400000001
 21
32.42426399999999
 31
0.0
  0
LINE
  5
F8
330
1F
100
AcDbEntity
  8
0
  6
Continuous
 62
     7
100
AcDbLine
 10
-4.85883000000001
 20
26.288054
 30
0.0
 11
-5.50377100000001
 21
32.42426399999999
 31
0.0
  0
LINE
  5
F9
330
1F
100
AcDbEntity
  8
0
  6
Continuous
 62
     7
100
AcDbLine
 10
-9.47895600000001
 20
22.42426399999999
 30
0.0
 11
-42.3
 21
22.42426399999999
 31
0.0
  0
LINE
  5
FA
330
1F
100
AcDbEntity
  8
0
  6
Continuous
 62
     7
100
AcDbLine
 10
-23.09804000000001
 20
23.92426399999999
 30
0.0
 11
-8.74735211551175
 21
23.92426400114299
 31
0.0
  0
LINE
  5
FB
330
1F
100
AcDbEntity
  8
0
  6
Continuous
 62
     7
100
AcDbLine
 10
-11.7
 20
-21.57573600000001
 30
0.0
 11
-11.7
 21
-19.57573600000001
 31
0.0
  0
LINE
  5
FC
330
1F
100
AcDbEntity
  8
0
  6
Continuous
 62
     7
100
AcDbLine
 10
-25.50000000000001
 20
-21.57573600000001
 30
0.0
 11
-11.7
 21
-21.57573600000001
 31
0.0
  0
LINE
  5
FD
330
1F
100
AcDbEntity
  8
0
  6
Continuous
 62
     7
100
AcDbLine
 10
-25.50000000000001
 20
-15.07573600000001
 30
0.0
 11
-25.50000000000001
 21
-21.57573600000001
 31
0.0
  0
LINE
  5
FE
330
1F
100
AcDbEntity
  8
0
  6
Continuous
 62
     7
100
AcDbLine
 10
-27.00000000000001
 20
-21.57573600000001
 30
0.0
 11
-27.00000000000001
 21
-15.07573600000001
 31
0.0
  0
LINE
  5
FF
330
1F
100
AcDbEntity
  8
0
  6
Continuous
 62
     7
100
AcDbLine
 10
-42.3
 20
-21.57573600000001
 30
0.0
 11
-27.00000000000001
 21
-21.57573600000001
 31
0.0
  0
LINE
  5
100
330
1F
100
AcDbEntity
  8
0
  6
Continuous
 62
     7
100
AcDbLine
 10
-24.606303
 20
23.92426399999999
 30
0.0
 11
-25.499689
 21
32.42426399999999
 31
0.0
  0
LINE
  5
101
330
1F
100
AcDbEntity
  8
0
  6
Continuous
 62
     7
100
AcDbLine
 10
-42.3
 20
23.92426399999999
 30
0.0
 11
-24.606303
 21
23.92426399999999
 31
0.0
  0
LINE
  5
102
330
1F
100
AcDbEntity
  8
0
  6
Continuous
 62
     7
100
AcDbLine
 10
-25.499689
 20
32.42426399999999
 30
0.0
 11
-42.3
 21
32.42426399999999
 31
0.0
  0
LINE
  5
103
330
1F
100
AcDbEntity
  8
0
  6
Continuous
 62
     7
100
AcDbLine
 10
-23.09804000000001
 20
23.92426399999999
 30
0.0
 11
-23.991426
 21
32.42426399999999
 31
0.0
  0
LINE
  5
104
330
1F
100
AcDbEntity
  8
0
  6
Continuous
 62
     7
100
AcDbLine
 10
12.90250199999998
 20
28.92426399999999
 30
0.0
 11
10.00031099999998
 21
28.92426399999999
 31
0.0
  0
LINE
  5
105
330
1F
100
AcDbEntity
  8
0
  6
Continuous
 62
     7
100
AcDbLine
 10
11.96467999999999
 20
32.42426399999999
 30
0.0
 11
12.90250199999998
 21
28.92426399999999
 31
0.0
  0
LINE
  5
106
330
1F
100
AcDbEntity
  8
0
  6
Continuous
 62
     7
100
AcDbLine
 10
7.50031099999998
 20
26.42426399999999
 30
0.0
 11
7.50031099999998
 21
24.92426399999999
 31
0.0
  0
LINE
  5
107
330
1F
100
AcDbEntity
  8
0
  6
Continuous
 62
     7
100
AcDbLine
 10
-45.00000000000001
 20
-0.00000000000001
 30
0.0
 11
-45.00000000000001
 21
-10.47854900000001
 31
0.0
  0
LINE
  5
108
330
1F
100
AcDbEntity
  8
0
  6
Continuous
 62
     7
100
AcDbLine
 10
-44.78786800000001
 20
0.21213199999999
 30
0.0
 11
-45.00000000000001
 21
-0.00000000000001
 31
0.0
  0
LINE
  5
109
330
1F
100
AcDbEntity
  8
0
  6
Continuous
 62
     7
100
AcDbLine
 10
-45.00000000000001
 20
0.84852799999998
 30
0.0
 11
-44.78786800000001
 21
0.63639599999998
 31
0.0
  0
LINE
  5
10A
330
1F
100
AcDbEntity
  8
0
  6
Continuous
 62
     7
100
AcDbLine
 10
-45.00000000000001
 20
20.36535599999998
 30
0.0
 11
-45.00000000000001
 21
0.84852799999998
 31
0.0
  0
LINE
  5
10B
330
1F
100
AcDbEntity
  8
0
  6
Continuous
 62
     7
100
AcDbLine
 10
-45.00000000000001
 20
21.327077
 30
0.0
 11
-45.00000000000001
 21
20.36535599999998
 31
0.0
  0
LINE
  5
10C
330
1F
100
AcDbEntity
  8
0
  6
Continuous
 62
     7
100
AcDbLine
 10
-49.37059047744874
 20
23.26549991314452
 30
0.0
 11
-45.74118095489749
 21
22.29300282628906
 31
0.0
  0
LINE
  5
10D
330
1F
100
AcDbEntity
  8
0
  6
Continuous
 62
     7
100
AcDbLine
 10
-50.00000000000001
 20
21.42426399999999
 30
0.0
 11
-50.00000000000001
 21
22.78253699999998
 31
0.0
  0
LINE
  5
10E
330
1F
100
AcDbEntity
  8
0
  6
Continuous
 62
     7
100
AcDbLine
 10
-52.00000000000001
 20
21.96016199999999
 30
0.0
 11
-50.00000000000001
 21
21.42426399999999
 31
0.0
  0
LINE
  5
10F
330
1F
100
AcDbEntity
  8
0
  6
Continuous
 62
     7
100
AcDbLine
 10
-52.00000000000001
 20
26.42426399999999
 30
0.0
 11
-52.00000000000001
 21
21.96016199999999
 31
0.0
  0
LINE
  5
110
330
1F
100
AcDbEntity
  8
0
  6
Continuous
 62
     7
100
AcDbLine
 10
-51.50000000000001
 20
26.42426399999999
 30
0.0
 11
-52.00000000000001
 21
26.42426399999999
 31
0.0
  0
LINE
  5
111
330
1F
100
AcDbEntity
  8
0
  6
Continuous
 62
     7
100
AcDbLine
 10
-46.25881900000001
 20
25.01989399999999
 30
0.0
 11
-51.50000000000001
 21
26.42426399999999
 31
0.0
  0
LINE
  5
112
330
1F
100
AcDbEntity
  8
0
  6
Continuous
 62
     7
100
AcDbLine
 10
-45.00000000000001
 20
31.42426399999999
 30
0.0
 11
-45.00000000000001
 21
25.98582
 31
0.0
  0
LINE
  5
113
330
1F
100
AcDbEntity
  8
0
  6
Continuous
 62
     7
100
AcDbLine
 10
-49.00000000000001
 20
32.42426399999999
 30
0.0
 11
-46.00000000000001
 21
32.42426399999999
 31
0.0
  0
LINE
  5
114
330
1F
100
AcDbEntity
  8
0
  6
Continuous
 62
     7
100
AcDbLine
 10
-50.00000000000001
 20
30.826188
 30
0.0
 11
-50.00000000000001
 21
31.42426399999999
 31
0.0
  0
LINE
  5
115
330
1F
100
AcDbEntity
  8
0
  6
Continuous
 62
     7
100
AcDbLine
 10
-51.50000000000001
 20
30.42426399999999
 30
0.0
 11
-50.00000000000001
 21
30.826188
 31
0.0
  0
LINE
  5
116
330
1F
100
AcDbEntity
  8
0
  6
Continuous
 62
     7
100
AcDbLine
 10
-52.00000000000001
 20
30.42426399999999
 30
0.0
 11
-51.50000000000001
 21
30.42426399999999
 31
0.0
  0
LINE
  5
117
330
1F
100
AcDbEntity
  8
0
  6
Continuous
 62
     7
100
AcDbLine
 10
-52.00000000000001
 20
35.42426399999999
 30
0.0
 11
-52.00000000000001
 21
30.42426399999999
 31
0.0
  0
LINE
  5
118
330
1F
100
AcDbEntity
  8
0
  6
Continuous
 62
     7
100
AcDbLine
 10
12.73200699999998
 20
35.42426399999999
 30
0.0
 11
-52.00000000000001
 21
35.42426399999999
 31
0.0
  0
LINE
  5
119
330
1F
100
AcDbEntity
  8
0
  6
Continuous
 62
     7
100
AcDbLine
 10
17.74999999999999
 20
22.42426399999999
 30
0.0
 11
14.66385799999999
 21
33.94190199999999
 31
0.0
  0
LINE
  5
11A
330
1F
100
AcDbEntity
  8
0
  6
Continuous
 62
     7
100
AcDbLine
 10
17.98327391314449
 20
21.55367352255126
 30
0.0
 11
17.74999999999999
 21
22.42426399999999
 31
0.0
  0
LINE
  5
11B
330
1F
100
AcDbEntity
  8
0
  6
Continuous
 62
     7
100
AcDbLine
 10
16.96353099999999
 20
21.49570499999999
 30
0.0
 11
17.01734799999998
 21
21.29485399999999
 31
0.0
  0
LINE
  5
11C
330
1F
100
AcDbEntity
  8
0
  6
Continuous
 62
     7
100
AcDbLine
 10
16.91332282628909
 20
21.68308304510251
 30
0.0
 11
16.96353099999999
 21
21.49570499999999
 31
0.0
  0
LINE
  5
11D
330
1F
100
AcDbEntity
  8
0
  6
Continuous
 62
     7
100
AcDbLine
 10
14.40031099999999
 20
22.42426399999999
 30
0.0
 11
15.947397
 21
22.42426399999999
 31
0.0
  0
LINE
  5
11E
330
1F
100
AcDbEntity
  8
0
  6
Continuous
 62
     7
100
AcDbLine
 10
13.90031099999999
 20
23.92426399999999
 30
0.0
 11
13.90031099999999
 21
22.92426399999999
 31
0.0
  0
LINE
  5
11F
330
1F
100
AcDbEntity
  8
0
  6
Continuous
 62
     7
100
AcDbLine
 10
15.50031099999998
 20
23.92426399999999
 30
0.0
 11
13.90031099999999
 21
23.92426399999999
 31
0.0
  0
LINE
  5
120
330
1F
100
AcDbEntity
  8
0
  6
Continuous
 62
     7
100
AcDbLine
 10
14.79576291314452
 20
26.55367352255126
 30
0.0
 11
15.50031099999998
 21
23.92426399999999
 31
0.0
  0
LINE
  5
121
330
1F
100
AcDbEntity
  8
0
  6
Continuous
 62
     7
100
AcDbLine
 10
10.00031099999998
 20
26.92426399999999
 30
0.0
 11
14.31279999999998
 21
26.92426399999999
 31
0.0
  0
LINE
  5
122
330
1F
100
AcDbEntity
  8
0
  6
Continuous
 62
     7
100
AcDbLine
 10
9.50031099999998
 20
23.92426399999999
 30
0.0
 11
9.50031099999998
 21
26.42426399999999
 31
0.0
  0
LINE
  5
123
330
1F
100
AcDbEntity
  8
0
  6
Continuous
 62
     7
100
AcDbLine
 10
11.10031099999999
 20
23.92426399999999
 30
0.0
 11
9.50031099999998
 21
23.92426399999999
 31
0.0
  0
LINE
  5
124
330
1F
100
AcDbEntity
  8
0
  6
Continuous
 62
     7
100
AcDbLine
 10
11.10031099999999
 20
22.92426399999999
 30
0.0
 11
11.10031099999999
 21
23.92426399999999
 31
0.0
  0
LINE
  5
125
330
1F
100
AcDbEntity
  8
0
  6
Continuous
 62
     7
100
AcDbLine
 10
-1.00000000000001
 20
22.42426399999999
 30
0.0
 11
10.60031099999999
 21
22.42426399999999
 31
0.0
  0
LINE
  5
126
330
1F
100
AcDbEntity
  8
0
  6
Continuous
 62
     7
100
AcDbLine
 10
-5.21213203435596
 20
0.63639603435595
 30
0.0
 11
-5.0
 21
0.84852799999998
 31
0.0
  0
LINE
  5
127
330
1F
100
AcDbEntity
  8
0
  6
Continuous
 62
     7
100
AcDbLine
 10
-5.0
 20
0.0
 30
0.0
 11
-5.21213203435596
 21
0.21213196564403
 31
0.0
  0
LINE
  5
128
330
1F
100
AcDbEntity
  8
0
  6
Continuous
 62
     7
100
AcDbLine
 10
-5.0
 20
-11.77158800000001
 30
0.0
 11
-5.0
 21
0.0
 31
0.0
  0
LINE
  5
129
330
1F
100
AcDbEntity
  8
0
  6
Continuous
 62
     7
100
AcDbLine
 10
-2.0
 20
-11.57573600000001
 30
0.0
 11
-2.5
 21
-11.57573600000001
 31
0.0
  0
LINE
  5
12A
330
1F
100
AcDbEntity
  8
0
  6
Continuous
 62
     7
100
AcDbLine
 10
-52.00000000000001
 20
-24.57573600000001
 30
0.0
 11
-10.0
 21
-24.57573600000001
 31
0.0
  0
LINE
  5
12B
330
1F
100
AcDbEntity
  8
0
  6
Continuous
 62
     7
100
AcDbLine
 10
-52.00000000000001
 20
-19.57573600000001
 30
0.0
 11
-52.00000000000001
 21
-24.57573600000001
 31
0.0
  0
LINE
  5
12C
330
1F
100
AcDbEntity
  8
0
  6
Continuous
 62
     7
100
AcDbLine
 10
-51.50000000000001
 20
-19.57573600000001
 30
0.0
 11
-52.00000000000001
 21
-19.57573600000001
 31
0.0
  0
LINE
  5
12D
330
1F
100
AcDbEntity
  8
0
  6
Continuous
 62
     7
100
AcDbLine
 10
-50.00000000000001
 20
-19.97766000000001
 30
0.0
 11
-51.50000000000001
 21
-19.57573600000001
 31
0.0
  0
LINE
  5
12E
330
1F
100
AcDbEntity
  8
0
  6
Continuous
 62
     7
100
AcDbLine
 10
-50.00000000000001
 20
-20.57573600000001
 30
0.0
 11
-50.00000000000001
 21
-19.97766000000001
 31
0.0
  0
LINE
  5
12F
330
1F
100
AcDbEntity
  8
0
  6
Continuous
 62
     7
100
AcDbLine
 10
-46.00000000000001
 20
-21.57573600000001
 30
0.0
 11
-49.00000000000001
 21
-21.57573600000001
 31
0.0
  0
LINE
  5
130
330
1F
100
AcDbEntity
  8
0
  6
Continuous
 62
     7
100
AcDbLine
 10
-45.00000000000001
 20
-15.13729200000001
 30
0.0
 11
-45.00000000000001
 21
-20.57573600000001
 31
0.0
  0
LINE
  5
131
330
1F
100
AcDbEntity
  8
0
  6
Continuous
 62
     7
100
AcDbLine
 10
-51.50000000000001
 20
-15.57573600000001
 30
0.0
 11
-46.25881904510253
 21
-14.17136617371095
 31
0.0
  0
LINE
  5
132
330
1F
100
AcDbEntity
  8
0
  6
Continuous
 62
     7
100
AcDbLine
 10
-52.00000000000001
 20
-15.57573600000001
 30
0.0
 11
-51.50000000000001
 21
-15.57573600000001
 31
0.0
  0
LINE
  5
133
330
1F
100
AcDbEntity
  8
0
  6
Continuous
 62
     7
100
AcDbLine
 10
-52.00000000000001
 20
-11.11163400000002
 30
0.0
 11
-52.00000000000001
 21
-15.57573600000001
 31
0.0
  0
LINE
  5
134
330
1F
100
AcDbEntity
  8
0
  6
Continuous
 62
     7
100
AcDbLine
 10
-50.00000000000001
 20
-10.57573600000002
 30
0.0
 11
-52.00000000000001
 21
-11.11163400000002
 31
0.0
  0
LINE
  5
135
330
1F
100
AcDbEntity
  8
0
  6
Continuous
 62
     7
100
AcDbLine
 10
-50.00000000000001
 20
-11.93400900000001
 30
0.0
 11
-50.00000000000001
 21
-10.57573600000002
 31
0.0
  0
LINE
  5
136
330
1F
100
AcDbEntity
  8
0
  6
Continuous
 62
     7
100
AcDbLine
 10
-45.74118100000001
 20
-11.44447500000002
 30
0.0
 11
-49.37059047744874
 21
-12.41697191314455
 31
0.0
  0
LINE
  5
137
330
1F
100
AcDbEntity
  8
0
  6
Continuous
 62
     7
100
AcDbLine
 10
-7.7
 20
-1.07573600000001
 30
0.0
 11
-7.7
 21
1.92426399999999
 31
0.0
  0
LINE
  5
138
330
1F
100
AcDbEntity
  8
0
  6
Continuous
 62
     7
100
AcDbLine
 10
-9.05
 20
-1.07573600000001
 30
0.0
 11
-7.7
 21
-1.07573600000001
 31
0.0
  0
LINE
  5
139
330
1F
100
AcDbEntity
  8
0
  6
Continuous
 62
     7
100
AcDbLine
 10
-7.7
 20
1.92426399999999
 30
0.0
 11
-9.05
 21
1.92426399999999
 31
0.0
  0
LINE
  5
13A
330
1F
100
AcDbEntity
  8
0
  6
Continuous
 62
     7
100
AcDbLine
 10
10.07553699999998
 20
28.92426399999999
 30
0.0
 11
10.00031099999998
 21
28.92426399999999
 31
0.0
  0
LINE
  5
13B
330
1F
100
AcDbEntity
  8
0
  6
Continuous
 62
     7
100
AcDbLine
 10
-52.00000000000001
 20
30.42426399999999
 30
0.0
 11
-51.50000000000001
 21
30.42426399999999
 31
0.0
  0
LINE
  5
13C
330
1F
100
AcDbEntity
  8
0
  6
Continuous
 62
     7
100
AcDbLine
 10
-9.05
 20
-2.57573600000001
 30
0.0
 11
-7.7
 21
-2.57573600000001
 31
0.0
  0
LINE
  5
13D
330
1F
100
AcDbEntity
  8
0
  6
Continuous
 62
     7
100
AcDbLine
 10
-7.7
 20
3.42426399999999
 30
0.0
 11
-9.05
 21
3.42426399999999
 31
0.0
  0
LINE
  5
13E
330
1F
100
AcDbEntity
  8
0
  6
Continuous
 62
     7
100
AcDbLine
 10
-28.8
 20
-10.32573600000002
 30
0.0
 11
-28.8
 21
-13.57573600000002
 31
0.0
  0
LINE
  5
13F
330
1F
100
AcDbEntity
  8
0
  6
Continuous
 62
     7
100
AcDbLine
 10
-42.3
 20
32.42426399999999
 30
0.0
 11
-42.3
 21
23.92426399999999
 31
0.0
  0
LINE
  5
140
330
1F
100
AcDbEntity
  8
0
  6
Continuous
 62
     7
100
AcDbLine
 10
-42.3
 20
22.42426399999999
 30
0.0
 11
-42.3
 21
17.42426399999998
 31
0.0
  0
LINE
  5
141
330
1F
100
AcDbEntity
  8
0
  6
Continuous
 62
     7
100
AcDbLine
 10
-42.3
 20
-15.07573600000001
 30
0.0
 11
-42.3
 21
-21.57573600000001
 31
0.0
  0
LINE
  5
142
330
1F
100
AcDbEntity
  8
0
  6
Continuous
 62
     7
100
AcDbLine
 10
-7.70000000031409
 20
-11.58791821705731
 30
0.0
 11
-7.7
 21
-2.57573600000001
 31
0.0
  0
LINE
  5
143
330
1F
100
AcDbEntity
  8
0
  6
Continuous
 62
     7
100
AcDbLine
 10
-7.70000000000002
 20
14.45490499999999
 30
0.0
 11
-7.7
 21
3.42426399999999
 31
0.0
  0
LINE
  5
144
330
1F
100
AcDbEntity
  8
0
  6
Continuous
 62
     7
100
AcDbLine
 10
-7.70000000000002
 20
14.45490499999999
 30
0.0
 11
-9.39336700000001
 21
19.165013
 31
0.0
  0
LINE
  5
145
330
1F
100
AcDbEntity
  8
0
  6
Continuous
 62
     7
100
AcDbLine
 10
-41.8
 20
-4.57573600000002
 30
0.0
 11
-42.3
 21
-4.57573600000002
 31
0.0
  0
LINE
  5
146
330
1F
100
AcDbEntity
  8
0
  6
Continuous
 62
     7
100
AcDbLine
 10
-41.8
 20
-3.57573600000002
 30
0.0
 11
-42.3
 21
-3.57573600000002
 31
0.0
  0
LINE
  5
147
330
1F
100
AcDbEntity
  8
0
  6
Continuous
 62
     7
100
AcDbLine
 10
-42.3
 20
-4.57573600000002
 30
0.0
 11
-42.3
 21
-13.57573600000002
 31
0.0
  0
LINE
  5
148
330
1F
100
AcDbEntity
  8
0
  6
Continuous
 62
     7
100
AcDbLine
 10
-41.8
 20
17.42426399999998
 30
0.0
 11
-42.3
 21
17.42426399999998
 31
0.0
  0
LINE
  5
149
330
1F
100
AcDbEntity
  8
0
  6
Continuous
 62
     7
100
AcDbLine
 10
-41.8
 20
16.42426399999998
 30
0.0
 11
-42.3
 21
16.42426399999998
 31
0.0
  0
LINE
  5
14A
330
1F
100
AcDbEntity
  8
0
  6
Continuous
 62
     7
100
AcDbLine
 10
-42.3
 20
16.42426399999998
 30
0.0
 11
-42.3
 21
-3.57573600000002
 31
0.0
  0
LINE
  5
14B
330
1F
100
AcDbEntity
  8
1
  6
DOT_CENTER
 62
     2
100
AcDbLine
 10
-16.49999999999981
 20
-34.57573600000001
 30
0.0
 11
-12.20115087779246
 21
-34.57573600000001
 31
0.0
  0
ARC
  5
14C
330
1F
100
AcDbEntity
  8
1
  6
Continuous
 62
     7
100
AcDbCircle
 10
-20.5
 20
-34.57573600000001
 30
0.0
 40
6.499999999999984
100
AcDbArc
 50
47.14496964437406
 51
132.8550303556261
  0
ARC
  5
14D
330
1F
100
AcDbEntity
  8
1
  6
Continuous
 62
     7
100
AcDbCircle
 10
-20.5
 20
-34.57573600000001
 30
0.0
 40
6.500000000000003
100
AcDbArc
 50
132.8550303556261
 51
47.14496964437406
  0
ARC
  5
14E
330
1F
100
AcDbEntity
  8
0
  6
Continuous
 62
     7
100
AcDbCircle
 10
64.01999999999998
 20
9.92426399999998
 30
0.0
 40
2.5
100
AcDbArc
 50
90.0
 51
180.0
  0
ARC
  5
14F
330
1F
100
AcDbEntity
  8
0
  6
Continuous
 62
     7
100
AcDbCircle
 10
71.51999999999998
 20
4.924264
 30
0.0
 40
0.4999999999999603
100
AcDbArc
 50
-164.9999999999976
 51
14.99999999999923
  0
ARC
  5
150
330
1F
100
AcDbEntity
  8
0
  6
Continuous
 62
     7
100
AcDbCircle
 10
69.96708547231938
 20
4.92426440490394
 30
0.0
 40
0.9999995950961983
100
AcDbArc
 50
14.99997952320696
 51
89.99996976611575
  0
ARC
  5
151
330
1F
100
AcDbEntity
  8
0
  6
Continuous
 62
     7
100
AcDbCircle
 10
67.948825
 20
9.424264
 30
0.0
 40
1.000000000000023
100
AcDbArc
 50
14.99999999999917
 51
90.0
  0
ARC
  5
152
330
1F
100
AcDbEntity
  8
0
  6
Continuous
 62
     7
100
AcDbCircle
 10
64.51999999999998
 20
9.42426399999998
 30
0.0
 40
1.0
100
AcDbArc
 50
90.0
 51
180.0
  0
ARC
  5
153
330
1F
100
AcDbEntity
  8
0
  6
Continuous
 62
     7
100
AcDbCircle
 10
69.01999999999998
 20
6.924264
 30
0.0
 40
1.0
100
AcDbArc
 50
180.0
 51
-90.0
  0
ARC
  5
154
330
1F
100
AcDbEntity
  8
0
  6
Continuous
 62
     7
100
AcDbCircle
 10
64.01999999999998
 20
6.924264
 30
0.0
 40
1.0
100
AcDbArc
 50
-90.0
 51
-0.00000000000117
  0
ARC
  5
155
330
1F
100
AcDbEntity
  8
0
  6
Continuous
 62
     7
100
AcDbCircle
 10
49.5000003117542
 20
-28.27158721829301
 30
0.0
 40
0.500000311754247
100
AcDbArc
 50
179.9999749854821
 51
-70.0000597586647
  0
ARC
  5
156
330
1F
100
AcDbEntity
  8
0
  6
Continuous
 62
     7
100
AcDbCircle
 10
45.99999999999999
 20
-31.77573600000003
 30
0.0
 40
1.0
100
AcDbArc
 50
90.0
 51
180.0
  0
ARC
  5
157
330
1F
100
AcDbEntity
  8
0
  6
Continuous
 62
     7
100
AcDbCircle
 10
45.99999999999999
 20
-37.07573600000001
 30
0.0
 40
1.0
100
AcDbArc
 50
180.0
 51
-90.0
  0
ARC
  5
158
330
1F
100
AcDbEntity
  8
0
  6
Continuous
 62
     7
100
AcDbCircle
 10
49.0
 20
-37.07573600000001
 30
0.0
 40
1.0
100
AcDbArc
 50
-90.0
 51
0.0
  0
ARC
  5
159
330
1F
100
AcDbEntity
  8
0
  6
Continuous
 62
     7
100
AcDbCircle
 10
51.0
 20
-40.07573600000001
 30
0.0
 40
1.0
100
AcDbArc
 50
-90.0
 51
0.0
  0
ARC
  5
15A
330
1F
100
AcDbEntity
  8
0
  6
Continuous
 62
     7
100
AcDbCircle
 10
49.49999998849628
 20
4.42426398859578
 30
0.0
 40
2.500000014683617
100
AcDbArc
 50
69.72778684324271
 51
-160.2255941204526
  0
ARC
  5
15B
330
1F
100
AcDbEntity
  8
0
  6
Continuous
 62
     7
100
AcDbCircle
 10
66.75169499999998
 20
16.92426399999998
 30
0.0
 40
1.99999999999997
100
AcDbArc
 50
15.00000000000049
 51
90.0
  0
ARC
  5
15C
330
1F
100
AcDbEntity
  8
0
  6
Continuous
 62
     7
100
AcDbCircle
 10
10.49999981964638
 20
8.92426384794933
 30
0.0
 40
0.4999998196464065
100
AcDbArc
 50
80.2664567127004
 51
179.9999825762725
  0
ARC
  5
15D
330
1F
100
AcDbEntity
  8
0
  6
Continuous
 62
     7
100
AcDbCircle
 10
13.5
 20
9.42426399999998
 30
0.0
 40
0.4999999999999961
100
AcDbArc
 50
-99.73351100000063
 51
0.0
  0
ARC
  5
15E
330
1F
100
AcDbEntity
  8
0
  6
Continuous
 62
     7
100
AcDbCircle
 10
13.5000001803536
 20
15.92426384794933
 30
0.0
 40
0.4999998196464084
100
AcDbArc
 50
0.00001742372725
 51
99.73354328730045
  0
ARC
  5
15F
330
1F
100
AcDbEntity
  8
0
  6
Continuous
 62
     7
100
AcDbCircle
 10
10.49999999999999
 20
16.42426399999998
 30
0.0
 40
0.5000000000000036
100
AcDbArc
 50
180.0
 51
-80.26648900000058
  0
ARC
  5
160
330
1F
100
AcDbEntity
  8
0
  6
Continuous
 62
     7
100
AcDbCircle
 10
22.99999999999999
 20
-11.675736034356
 30
0.0
 40
0.2999999757066845
100
AcDbArc
 50
-44.99999536030943
 51
45.00000463969297
  0
ARC
  5
161
330
1F
100
AcDbEntity
  8
0
  6
Continuous
 62
     7
100
AcDbCircle
 10
49.0
 20
-17.57573600000002
 30
0.0
 40
0.3000000000000346
100
AcDbArc
 50
135.0000000000077
 51
-135.0000000000077
  0
ARC
  5
162
330
1F
100
AcDbEntity
  8
0
  6
Continuous
 62
     7
100
AcDbCircle
 10
-2.0
 20
-29.07573600000002
 30
0.0
 40
1.0
100
AcDbArc
 50
90.0
 51
180.0
  0
ARC
  5
163
330
1F
100
AcDbEntity
  8
0
  6
Continuous
 62
     7
100
AcDbCircle
 10
-7.0
 20
-29.07573600000002
 30
0.0
 40
1.0
100
AcDbArc
 50
0.0
 51
90.0
  0
ARC
  5
164
330
1F
100
AcDbEntity
  8
0
  6
Continuous
 62
     7
100
AcDbCircle
 10
-7.02998530513265
 20
-39.07573572039747
 30
0.0
 40
2.000000279602563
100
AcDbArc
 50
-175.0000066217093
 51
-89.99999125859496
  0
ARC
  5
165
330
1F
100
AcDbEntity
  8
0
  6
Continuous
 62
     7
100
AcDbCircle
 10
9.6999999930759
 20
-28.07573603728737
 30
0.0
 40
3.000000006924088
100
AcDbArc
 50
-21.03946975676031
 51
0.000000712136
  0
ARC
  5
166
330
1F
100
AcDbEntity
  8
0
  6
Continuous
 62
     7
100
AcDbCircle
 10
45.04999999999998
 20
-15.32573600000002
 30
0.0
 40
0.75
100
AcDbArc
 50
90.0
 51
-90.0
  0
ARC
  5
167
330
1F
100
AcDbEntity
  8
0
  6
Continuous
 62
     7
100
AcDbCircle
 10
45.04999999999998
 20
-19.82573600000002
 30
0.0
 40
0.75
100
AcDbArc
 50
90.0
 51
-90.0
  0
ARC
  5
168
330
1F
100
AcDbEntity
  8
0
  6
Continuous
 62
     7
100
AcDbCircle
 10
38.54999999999998
 20
-36.32573600000002
 30
0.0
 40
0.75
100
AcDbArc
 50
0.0
 51
180.0
  0
ARC
  5
169
330
1F
100
AcDbEntity
  8
0
  6
Continuous
 62
     7
100
AcDbCircle
 10
22.99999999999999
 20
-3.57573600000002
 30
0.0
 40
2.699999999999999
100
AcDbArc
 50
0.0
 51
90.0
  0
ARC
  5
16A
330
1F
100
AcDbEntity
  8
0
  6
Continuous
 62
     7
100
AcDbCircle
 10
22.99999999999999
 20
-19.77573600000003
 30
0.0
 40
2.699999999999989
100
AcDbArc
 50
-90.0
 51
0.0
  0
ARC
  5
16B
330
1F
100
AcDbEntity
  8
0
  6
Continuous
 62
     7
100
AcDbCircle
 10
45.99999999999999
 20
-31.77573600000003
 30
0.0
 40
3.700000000000003
100
AcDbArc
 50
85.34929100000005
 51
180.0
  0
ARC
  5
16C
330
1F
100
AcDbEntity
  8
0
  6
Continuous
 62
     7
100
AcDbCircle
 10
49.5
 20
4.42426399999998
 30
0.0
 40
5.200000000000009
100
AcDbArc
 50
112.324931
 51
144.7655820154185
  0
ARC
  5
16D
330
1F
100
AcDbEntity
  8
0
  6
Continuous
 62
     7
100
AcDbCircle
 10
49.50000000735819
 20
4.42426371979842
 30
0.0
 40
5.20000036190509
100
AcDbArc
 50
163.2341250042265
 51
-160.2256045247973
  0
ARC
  5
16E
330
1F
100
AcDbEntity
  8
0
  6
Continuous
 62
     7
100
AcDbCircle
 10
14.45
 20
-26.22573600000002
 30
0.0
 40
0.75
100
AcDbArc
 50
-90.0
 51
90.0
  0
ARC
  5
16F
330
1F
100
AcDbEntity
  8
0
  6
Continuous
 62
     7
100
AcDbCircle
 10
-3.0
 20
-23.57573600000001
 30
0.0
 40
1.0
100
AcDbArc
 50
-90.0
 51
0.0
  0
ARC
  5
170
330
1F
100
AcDbEntity
  8
0
  6
Continuous
 62
     7
100
AcDbCircle
 10
-5.0
 20
-20.57573600000001
 30
0.0
 40
1.0
100
AcDbArc
 50
-90.0
 51
0.0
  0
ARC
  5
171
330
1F
100
AcDbEntity
  8
0
  6
Continuous
 62
     7
100
AcDbCircle
 10
-8.0
 20
-20.57573600000001
 30
0.0
 40
1.0
100
AcDbArc
 50
180.0
 51
-90.0
  0
ARC
  5
172
330
1F
100
AcDbEntity
  8
0
  6
Continuous
 62
     7
100
AcDbCircle
 10
-8.0
 20
-15.27573600000002
 30
0.0
 40
1.000000000000009
100
AcDbArc
 50
90.0
 51
180.0
  0
ARC
  5
173
330
1F
100
AcDbEntity
  8
0
  6
Continuous
 62
     7
100
AcDbCircle
 10
-4.5
 20
-11.77158800000001
 30
0.0
 40
0.5
100
AcDbArc
 50
180.0
 51
-69.99999999999942
  0
ARC
  5
174
330
1F
100
AcDbEntity
  8
0
  6
Continuous
 62
     7
100
AcDbCircle
 10
-4.50000001150372
 20
20.9242639885958
 30
0.0
 40
2.50000001468361
100
AcDbArc
 50
69.72778684324332
 51
-160.2255941204525
  0
ARC
  5
175
330
1F
100
AcDbEntity
  8
0
  6
Continuous
 62
     7
100
AcDbCircle
 10
10.00031099999998
 20
26.42426399999999
 30
0.0
 40
2.5
100
AcDbArc
 50
90.0
 51
180.0
  0
ARC
  5
176
330
1F
100
AcDbEntity
  8
0
  6
Continuous
 62
     7
100
AcDbCircle
 10
-45.00000000000001
 20
0.42426399999998
 30
0.0
 40
0.29999995141332
100
AcDbArc
 50
-44.99999999999905
 51
45.00000000000095
  0
ARC
  5
177
330
1F
100
AcDbEntity
  8
0
  6
Continuous
 62
     7
100
AcDbCircle
 10
-46.00000000000001
 20
21.327077
 30
0.0
 40
1.0
100
AcDbArc
 50
0.0
 51
74.99999999999997
  0
ARC
  5
178
330
1F
100
AcDbEntity
  8
0
  6
Continuous
 62
     7
100
AcDbCircle
 10
-49.50000000000001
 20
22.78253699999998
 30
0.0
 40
0.5000000000000083
100
AcDbArc
 50
74.99999999999905
 51
180.0
  0
ARC
  5
179
330
1F
100
AcDbEntity
  8
0
  6
Continuous
 62
     7
100
AcDbCircle
 10
-46.00000007805925
 20
25.98581994010302
 30
0.0
 40
1.000000078059247
100
AcDbArc
 50
-104.9999914960265
 51
0.00000343184388
  0
ARC
  5
17A
330
1F
100
AcDbEntity
  8
0
  6
Continuous
 62
     7
100
AcDbCircle
 10
-46.00000000000001
 20
31.42426399999999
 30
0.0
 40
1.0
100
AcDbArc
 50
0.0
 51
90.0
  0
ARC
  5
17B
330
1F
100
AcDbEntity
  8
0
  6
Continuous
 62
     7
100
AcDbCircle
 10
-49.00000000000001
 20
31.42426399999999
 30
0.0
 40
0.9999999999999964
100
AcDbArc
 50
90.0
 51
180.0
  0
ARC
  5
17C
330
1F
100
AcDbEntity
  8
0
  6
Continuous
 62
     7
100
AcDbCircle
 10
12.73200657404809
 20
33.4242643268445
 30
0.0
 40
1.999999673155531
100
AcDbArc
 50
14.99999013986037
 51
89.99998779737516
  0
ARC
  5
17D
330
1F
100
AcDbEntity
  8
0
  6
Continuous
 62
     7
100
AcDbCircle
 10
17.50031089980017
 20
21.42426397315149
 30
0.0
 40
0.5000001037344673
100
AcDbArc
 50
-164.9999497286733
 51
15.00000000000687
  0
ARC
  5
17E
330
1F
100
AcDbEntity
  8
0
  6
Continuous
 62
     7
100
AcDbCircle
 10
15.947397
 20
21.42426399999999
 30
0.0
 40
1.00000000000002
100
AcDbArc
 50
14.99999999999964
 51
90.0
  0
ARC
  5
17F
330
1F
100
AcDbEntity
  8
0
  6
Continuous
 62
     7
100
AcDbCircle
 10
14.40031099999999
 20
22.92426399999999
 30
0.0
 40
0.5
100
AcDbArc
 50
180.0
 51
-90.0
  0
ARC
  5
180
330
1F
100
AcDbEntity
  8
0
  6
Continuous
 62
     7
100
AcDbCircle
 10
14.31279999999998
 20
26.42426399999999
 30
0.0
 40
0.5000000000000083
100
AcDbArc
 50
15.00000000000095
 51
90.0
  0
ARC
  5
181
330
1F
100
AcDbEntity
  8
0
  6
Continuous
 62
     7
100
AcDbCircle
 10
10.00031099999998
 20
26.42426399999999
 30
0.0
 40
0.5
100
AcDbArc
 50
90.0
 51
180.0
  0
ARC
  5
182
330
1F
100
AcDbEntity
  8
0
  6
Continuous
 62
     7
100
AcDbCircle
 10
10.60031099999999
 20
22.92426399999999
 30
0.0
 40
0.5
100
AcDbArc
 50
-90.0
 51
0.0
  0
ARC
  5
183
330
1F
100
AcDbEntity
  8
0
  6
Continuous
 62
     7
100
AcDbCircle
 10
-5.0
 20
0.42426399999999
 30
0.0
 40
0.2999999999999943
100
AcDbArc
 50
135.0
 51
-135.0
  0
ARC
  5
184
330
1F
100
AcDbEntity
  8
0
  6
Continuous
 62
     7
100
AcDbCircle
 10
-4.5
 20
-11.77158800000001
 30
0.0
 40
0.5
100
AcDbArc
 50
180.0
 51
-69.99999999999942
  0
ARC
  5
185
330
1F
100
AcDbEntity
  8
0
  6
Continuous
 62
     7
100
AcDbCircle
 10
-49.00000000000001
 20
-20.57573600000001
 30
0.0
 40
1.0
100
AcDbArc
 50
180.0
 51
-90.0
  0
ARC
  5
186
330
1F
100
AcDbEntity
  8
0
  6
Continuous
 62
     7
100
AcDbCircle
 10
-46.00000000000001
 20
-20.57573600000001
 30
0.0
 40
1.0
100
AcDbArc
 50
-90.0
 51
0.0
  0
ARC
  5
187
330
1F
100
AcDbEntity
  8
0
  6
Continuous
 62
     7
100
AcDbCircle
 10
-46.00000000000001
 20
-15.13729200000001
 30
0.0
 40
1.0
100
AcDbArc
 50
0.0
 51
105.0000000000001
  0
ARC
  5
188
330
1F
100
AcDbEntity
  8
0
  6
Continuous
 62
     7
100
AcDbCircle
 10
-49.50000000000001
 20
-11.93400900000001
 30
0.0
 40
0.5
100
AcDbArc
 50
180.0
 51
-74.99999999999905
  0
ARC
  5
189
330
1F
100
AcDbEntity
  8
0
  6
Continuous
 62
     7
100
AcDbCircle
 10
-46.00000007805924
 20
-10.4785491017288
 30
0.0
 40
1.000000078059244
100
AcDbArc
 50
-74.99999924350168
 51
0.00000582862991
  0
ARC
  5
18A
330
1F
100
AcDbEntity
  8
0
  6
Continuous
 62
     7
100
AcDbCircle
 10
-9.05
 20
2.67426399999999
 30
0.0
 40
0.75
100
AcDbArc
 50
90.0
 51
-90.0
  0
ARC
  5
18B
330
1F
100
AcDbEntity
  8
0
  6
Continuous
 62
     7
100
AcDbCircle
 10
-9.05
 20
-1.82573600000001
 30
0.0
 40
0.75
100
AcDbArc
 50
90.0
 51
-90.0
  0
ARC
  5
18C
330
1F
100
AcDbEntity
  8
0
  6
Continuous
 62
     7
100
AcDbCircle
 10
-12.95
 20
-18.82573600000001
 30
0.0
 40
0.75
100
AcDbArc
 50
90.0
 51
-90.0
  0
ARC
  5
18D
330
1F
100
AcDbEntity
  8
0
  6
Continuous
 62
     7
100
AcDbCircle
 10
-28.05000000000001
 20
-10.32573600000002
 30
0.0
 40
0.75
100
AcDbArc
 50
0.0
 51
180.0
  0
ARC
  5
18E
330
1F
100
AcDbEntity
  8
0
  6
Continuous
 62
     7
100
AcDbCircle
 10
-8.0
 20
-15.27573600000002
 30
0.0
 40
3.700000000000005
100
AcDbArc
 50
85.34929100000005
 51
152.647767
  0
ARC
  5
18F
330
1F
100
AcDbEntity
  8
0
  6
Continuous
 62
     7
100
AcDbCircle
 10
-4.50000000000001
 20
20.92426399999999
 30
0.0
 40
5.199999999999998
100
AcDbArc
 50
110.43422
 51
144.765582
  0
ARC
  5
190
330
1F
100
AcDbEntity
  8
0
  6
Continuous
 62
     7
100
AcDbCircle
 10
-4.49999999264183
 20
20.92426371979843
 30
0.0
 40
5.200000361905071
100
AcDbArc
 50
163.2341250042265
 51
-160.2256045247973
  0
ARC
  5
191
330
1F
100
AcDbEntity
  8
0
  6
Continuous
 62
     7
100
AcDbCircle
 10
-41.8
 20
-4.07573600000002
 30
0.0
 40
0.5
100
AcDbArc
 50
-90.0
 51
90.0
  0
ARC
  5
192
330
1F
100
AcDbEntity
  8
0
  6
Continuous
 62
     7
100
AcDbCircle
 10
-41.8
 20
16.92426399999998
 30
0.0
 40
0.5
100
AcDbArc
 50
-90.0
 51
90.0
  0
CIRCLE
  5
193
330
1F
100
AcDbEntity
  8
1
  6
Continuous
 62
     7
100
AcDbCircle
 10
-20.5
 20
-34.57573600000001
 30
0.0
 40
4.000000000000188
  0
ARC
  5
194
102
{ACAD_REACTORS
330
1A2
330
1A2
102
}
330
1F
100
AcDbEntity
  8
1
  6
Continuous
 62
     7
100
AcDbCircle
 10
40.29999999999998
 20
-35.07573600000001
 30
0.0
 40
2.0
100
AcDbArc
 50
-90.0
 51
0.0
  0
ARC
  5
195
102
{ACAD_REACTORS
330
1A2
330
1A2
102
}
330
1F
100
AcDbEntity
  8
1
  6
Continuous
 62
     7
100
AcDbCircle
 10
40.29999999999998
 20
-35.07573600000001
 30
0.0
 40
0.5
100
AcDbArc
 50
-90.0
 51
0.0
  0
ARC
  5
196
102
{ACAD_REACTORS
330
1A2
330
1A2
102
}
330
1F
100
AcDbEntity
  8
1
  6
Continuous
 62
     7
100
AcDbCircle
 10
40.29999999999998
 20
2.92426399999998
 30
0.0
 40
2.0
100
AcDbArc
 50
0.0
 51
90.0
  0
ARC
  5
197
102
{ACAD_REACTORS
330
1A2
330
1A2
102
}
330
1F
100
AcDbEntity
  8
1
  6
Continuous
 62
     7
100
AcDbCircle
 10
15.69999999999999
 20
2.92426399999998
 30
0.0
 40
2.0
100
AcDbArc
 50
90.0
 51
180.0
  0
ARC
  5
198
102
{ACAD_REACTORS
330
1A2
330
1A2
102
}
330
1F
100
AcDbEntity
  8
1
  6
Continuous
 62
     7
100
AcDbCircle
 10
40.29999999999998
 20
2.92426399999998
 30
0.0
 40
0.5
100
AcDbArc
 50
0.0000000000001
 51
90.0
  0
ARC
  5
199
102
{ACAD_REACTORS
330
1A2
330
1A2
102
}
330
1F
100
AcDbEntity
  8
1
  6
Continuous
 62
     7
100
AcDbCircle
 10
15.69999999999999
 20
2.92426399999998
 30
0.0
 40
0.5
100
AcDbArc
 50
90.0
 51
180.0
  0
ARC
  5
19A
102
{ACAD_REACTORS
330
1A3
330
1A3
102
}
330
1F
100
AcDbEntity
  8
1
  6
Continuous
 62
     7
100
AcDbCircle
 10
-39.3
 20
-7.57573600000003
 30
0.0
 40
2.0
100
AcDbArc
 50
180.0
 51
-90.0
  0
ARC
  5
19B
102
{ACAD_REACTORS
330
1A3
330
1A3
102
}
330
1F
100
AcDbEntity
  8
1
  6
Continuous
 62
     7
100
AcDbCircle
 10
-11.8
 20
-7.57573600000003
 30
0.0
 40
2.0
100
AcDbArc
 50
-90.0
 51
0.0
  0
ARC
  5
19C
102
{ACAD_REACTORS
330
1A3
330
1A3
102
}
330
1F
100
AcDbEntity
  8
1
  6
Continuous
 62
     7
100
AcDbCircle
 10
-11.8
 20
19.42426399999999
 30
0.0
 40
2.000000000000004
100
AcDbArc
 50
0.0
 51
90.0
  0
ARC
  5
19D
102
{ACAD_REACTORS
330
1A3
330
1A3
102
}
330
1F
100
AcDbEntity
  8
1
  6
Continuous
 62
     7
100
AcDbCircle
 10
-39.3
 20
19.42426399999999
 30
0.0
 40
2.0
100
AcDbArc
 50
90.0
 51
180.0
  0
ARC
  5
19E
102
{ACAD_REACTORS
330
1A3
330
1A3
102
}
330
1F
100
AcDbEntity
  8
1
  6
Continuous
 62
     7
100
AcDbCircle
 10
-39.3
 20
-7.57573600000003
 30
0.0
 40
0.5
100
AcDbArc
 50
180.0
 51
-90.0
  0
ARC
  5
19F
102
{ACAD_REACTORS
330
1A3
330
1A3
102
}
330
1F
100
AcDbEntity
  8
1
  6
Continuous
 62
     7
100
AcDbCircle
 10
-11.8
 20
-7.57573600000003
 30
0.0
 40
0.5
100
AcDbArc
 50
-90.0
 51
0.0
  0
ARC
  5
1A0
102
{ACAD_REACTORS
330
1A3
330
1A3
102
}
330
1F
100
AcDbEntity
  8
1
  6
Continuous
 62
     7
100
AcDbCircle
 10
-11.8
 20
19.42426399999999
 30
0.0
 40
0.5
100
AcDbArc
 50
0.0
 51
90.0
  0
ARC
  5
1A1
102
{ACAD_REACTORS
330
1A3
330
1A3
102
}
330
1F
100
AcDbEntity
  8
1
  6
Continuous
 62
     7
100
AcDbCircle
 10
-39.3
 20
19.42426399999999
 30
0.0
 40
0.5
100
AcDbArc
 50
90.0
 51
180.0
  0
HATCH
  5
1A2
330
1F
100
AcDbEntity
  8
1
  6
Continuous
 62
     3
100
AcDbHatch
 10
0.0
 20
0.0
 30
0.0
210
0.0
220
0.0
230
1.0
  2
SOLID
 70
     1
 71
     1
 91
        1
 92
        1
 93
       16
 72
     1
 10
42.29999999999998
 20
2.92426399999998
 11
42.29999999999998
 21
-35.07573600000001
 72
     2
 10
40.29999999999998
 20
-35.07573600000001
 40
2.0
 50
0.0
 51
90.0
 73
     0
 72
     1
 10
40.29999999999998
 20
-37.07573600000001
 11
39.29999999999998
 21
-37.07573600000001
 72
     1
 10
39.29999999999998
 20
-37.07573600000001
 11
39.29999999999998
 21
-35.57573600000001
 72
     1
 10
39.29999999999998
 20
-35.57573600000001
 11
40.29999999999998
 21
-35.57573600000001
 72
     2
 10
40.29999999999998
 20
-35.07573600000001
 40
0.5
 50
270.0
 51
360.0
 73
     1
 72
     1
 10
40.79999999999998
 20
-35.07573600000001
 11
40.79999999999998
 21
2.924263999999981
 72
     2
 10
40.29999999999998
 20
2.92426399999998
 40
0.5
 50
0.0000000000001018
 51
90.0
 73
     1
 72
     1
 10
40.29999999999998
 20
3.42426399999998
 11
15.69999999999999
 21
3.42426399999998
 72
     2
 10
15.69999999999999
 20
2.92426399999998
 40
0.5
 50
90.0
 51
180.0
 73
     1
 72
     1
 10
15.19999999999999
 20
2.92426399999998
 11
15.19999999999999
 21
0.1242639999999753
 72
     1
 10
15.19999999999999
 20
0.1242639999999753
 11
13.69999999999999
 21
0.1242639999999753
 72
     1
 10
13.69999999999999
 20
0.1242639999999753
 11
13.69999999999999
 21
2.92426399999998
 72
     2
 10
15.69999999999999
 20
2.92426399999998
 40
2.0
 50
180.0
 51
270.0
 73
     0
 72
     1
 10
15.69999999999999
 20
4.92426399999998
 11
40.29999999999998
 21
4.92426399999998
 72
     2
 10
40.29999999999998
 20
2.92426399999998
 40
2.0
 50
270.0
 51
360.0
 73
     0
 97
       16
330
3F
330
194
330
3E
330
39
330
38
330
195
330
37
330
198
330
3D
330
199
330
3C
330
3B
330
41
330
197
330
40
330
196
 75
     0
 76
     1
 98
        1
 10
0.0
 20
0.0
  0
HATCH
  5
1A3
330
1F
100
AcDbEntity
  8
1
  6
Continuous
 62
     3
100
AcDbHatch
 10
0.0
 20
0.0
 30
0.0
210
0.0
220
0.0
230
1.0
  2
SOLID
 70
     1
 71
     1
 91
        2
 92
        1
 93
        8
 72
     1
 10
-9.799999999999997
 20
19.42426399999999
 11
-9.799999999999997
 21
-7.575736000000031
 72
     2
 10
-11.8
 20
-7.575736000000031
 40
2.0
 50
0.0
 51
90.0
 73
     0
 72
     1
 10
-11.8
 20
-9.575736000000031
 11
-39.3
 21
-9.575736000000031
 72
     2
 10
-39.3
 20
-7.575736000000031
 40
2.0
 50
90.0
 51
180.0
 73
     0
 72
     1
 10
-41.3
 20
-7.575736000000031
 11
-41.3
 21
19.42426399999999
 72
     2
 10
-39.3
 20
19.42426399999999
 40
2.0
 50
180.0
 51
270.0
 73
     0
 72
     1
 10
-39.3
 20
21.42426399999999
 11
-11.8
 21
21.42426399999999
 72
     2
 10
-11.8
 20
19.42426399999999
 40
2.000000000000004
 50
270.0
 51
360.0
 73
     0
 97
        8
330
44
330
19B
330
43
330
19A
330
42
330
19D
330
45
330
19C
 92
       16
 93
        8
 72
     1
 10
-39.8
 20
19.42426399999999
 11
-39.8
 21
-7.575736000000031
 72
     2
 10
-39.3
 20
-7.575736000000031
 40
0.5
 50
180.0
 51
270.0
 73
     1
 72
     1
 10
-39.3
 20
-8.075736000000031
 11
-11.8
 21
-8.075736000000031
 72
     2
 10
-11.8
 20
-7.575736000000031
 40
0.5
 50
270.0
 51
360.0
 73
     1
 72
     1
 10
-11.3
 20
-7.575736000000031
 11
-11.3
 21
19.42426399999999
 72
     2
 10
-11.8
 20
19.42426399999999
 40
0.5
 50
0.0
 51
90.0
 73
     1
 72
     1
 10
-11.8
 20
19.92426399999999
 11
-39.3
 21
19.92426399999999
 72
     2
 10
-39.3
 20
19.42426399999999
 40
0.5
 50
90.0
 51
180.0
 73
     1
 97
        8
330
47
330
1A0
330
48
330
19F
330
49
330
19E
330
46
330
1A1
 75
     0
 76
     1
 98
        1
 10
0.0
 20
0.0
  0
ENDSEC
  0
SECTION
  2
OBJECTS
  0
DICTIONARY
  5
C
330
0
100
AcDbDictionary
281
     1
  3
ACAD_GROUP
350
D
  3
ACAD_LAYOUT
350
1A
  3
ACAD_MLINESTYLE
350
17
  3
ACAD_PLOTSETTINGS
350
19
  3
ACAD_PLOTSTYLENAME
350
E
  0
DICTIONARY
  5
D
102
{ACAD_REACTORS
330
C
102
}
330
C
100
AcDbDictionary
281
     1
  0
DICTIONARY
  5
1A
102
{ACAD_REACTORS
330
C
102
}
330
C
100
AcDbDictionary
281
     1
  3
Layout1
350
1E
  3
Layout2
350
26
  3
Model
350
22
  0
DICTIONARY
  5
17
102
{ACAD_REACTORS
330
C
102
}
330
C
100
AcDbDictionary
281
     1
  3
Standard
350
18
  0
DICTIONARY
  5
19
102
{ACAD_REACTORS
330
C
102
}
330
C
100
AcDbDictionary
281
     1
  0
ACDBDICTIONARYWDFLT
  5
E
102
{ACAD_REACTORS
330
C
102
}
330
C
100
AcDbDictionary
281
     1
  3
Normal
350
F
100
AcDbDictionaryWithDefault
340
F
  0
LAYOUT
  5
1E
102
{ACAD_REACTORS
330
1A
102
}
330
1A
100
AcDbPlotSettings
  1

  2

  4

  6

 40
0.0
 41
0.0
 42
0.0
 43
0.0
 44
0.0
 45
0.0
 46
0.0
 47
0.0
 48
0.0
 49
0.0
140
0.0
141
0.0
142
1.0
143
1.0
 70
   688
 72
     0
 73
     0
 74
     5
  7

 75
    16
 76
     0
 77
     2
 78
   300
147
1.0
148
0.0
149
0.0
100
AcDbLayout
  1
Layout1
 70
     1
 71
     1
 10
0.0
 20
0.0
 11
0.0
 21
0.0
 12
0.0
 22
0.0
 32
0.0
 14
0.0
 24
0.0
 34
0.0
 15
0.0
 25
0.0
 35
0.0
146
0.0
 13
0.0
 23
0.0
 33
0.0
 16
1.0
 26
0.0
 36
0.0
 17
0.0
 27
1.0
 37
0.0
 76
     0
330
1B
  0
LAYOUT
  5
26
102
{ACAD_REACTORS
330
1A
102
}
330
1A
100
AcDbPlotSettings
  1

  2

  4

  6

 40
0.0
 41
0.0
 42
0.0
 43
0.0
 44
0.0
 45
0.0
 46
0.0
 47
0.0
 48
0.0
 49
0.0
140
0.0
141
0.0
142
1.0
143
1.0
 70
   688
 72
     0
 73
     0
 74
     5
  7

 75
    16
 76
     0
 77
     2
 78
   300
147
1.0
148
0.0
149
0.0
100
AcDbLayout
  1
Layout2
 70
     1
 71
     2
 10
0.0
 20
0.0
 11
0.0
 21
0.0
 12
0.0
 22
0.0
 32
0.0
 14
0.0
 24
0.0
 34
0.0
 15
0.0
 25
0.0
 35
0.0
146
0.0
 13
0.0
 23
0.0
 33
0.0
 16
1.0
 26
0.0
 36
0.0
 17
0.0
 27
1.0
 37
0.0
 76
     0
330
23
  0
LAYOUT
  5
22
102
{ACAD_REACTORS
330
1A
102
}
330
1A
100
AcDbPlotSettings
  1

  2

  4

  6

 40
0.0
 41
0.0
 42
0.0
 43
0.0
 44
0.0
 45
0.0
 46
0.0
 47
0.0
 48
0.0
 49
0.0
140
0.0
141
0.0
142
1.0
143
1.0
 70
  1712
 72
     0
 73
     0
 74
     0
  7

 75
     0
 76
     0
 77
     2
 78
   300
147
1.0
148
0.0
149
0.0
100
AcDbLayout
  1
Model
 70
     1
 71
     0
 10
0.0
 20
0.0
 11
0.0
 21
0.0
 12
0.0
 22
0.0
 32
0.0
 14
-52.00000000000001
 24
-42.81949759965256
 34
0.0
 15
72.01999999999997
 25
35.42426399999999
 35
0.0
146
0.0
 13
0.0
 23
0.0
 33
0.0
 16
1.0
 26
0.0
 36
0.0
 17
0.0
 27
1.0
 37
0.0
 76
     0
330
1F
  0
MLINESTYLE
  5
18
102
{ACAD_REACTORS
330
17
102
}
330
17
100
AcDbMlineStyle
  2
Standard
 70
     0
  3

 62
   256
 51
90.0
 52
90.0
 71
     2
 49
0.5
 62
   256
  6
BYLAYER
 49
-0.5
 62
   256
  6
BYLAYER
  0
ACDBPLACEHOLDER
  5
F
102
{ACAD_REACTORS
330
E
102
}
330
E
  0
ENDSEC
  0
EOF
